Güzel sözler | Fıkra | Hikaye | Şiir - Şair| Şarkı sözleri | Türküler | Sohbet odaları | Rüya | Sağlık | Biyografi | islam | Güzeller | Paylaş


Canim.net
Akorlar
Akor Ekle
Şarkı sözleri
Yabancı şarkı sözleri
Çeviriler
Türkü
A  B  C  Ç  D  E  F  G  Ğ  H  I  İ  J  K  L  M  N  O  Ö  P  R  S  Ş  T  U  Ü  V  Y  Z 



ZaferlerimSolo & İntro - Demir Demirkan



İntro ve Ara Geçiş
e|-----------1-------55-33-0h1-------------------33-11-0h1----------|
B|------3------3---3--------------------1---------------------------|
G|----2---2------2------------------2-----2---2---------------------|
D|--0-----------------------------2---2-----2-----------------------|
A|------------------------------0-----------------------------------|
E|------------------------------------------------------------------|

SoLo :

e|-1---55-33-0h1-----33-11-0h1------------------------|
B|---3--------------1---------------------------------|
G|--2--------------2----------------------------------|
D|-0--------------2-----------------------------------|
A|----------------0-----------------------------------|
E|----------------------------------------------------|

e|-----------------------------------------------------|
B|-----------------------------------------------------|
G|-----------7-------------------12--------------------|
D|--------7-------------------12-----------------------|
A|--3h55-------7h8h7-5---5s10-----------12h13h12-7-----|
E|-----------------------------------------------------|

e|-------------------------------------------------------|
B|--------------10s15-15-17h18-17-15-17s20-18-17-15-17---|
G|-------------------------------------------------------|
D|-------------------------------------------------------|
A|-----------7-------------------------------------------|
E|---7h5-55----------------------------------------------|

e|------------------------------------|
B|--15-17-18-17-15-----------15-------|
G|-----------------18-16h18-----------|
D|------------------------------------|
A|------------------------------------|
E|------------------------------------|






ZaferlerimSolo & İntro - Demir Demirkan akoru
ZaferlerimSolo & İntro - Demir Demirkan notaları,
ZaferlerimSolo & İntro - Demir Demirkan tablar bas tablar akord akor oku



iletisim  Reklam  Gizlilik sözlesmesi
Diger sitelerimize baktiniz mi ? Radyo Dinle - milli piyango sonuclari - 2017 yeni yil mesajlari - Güzel sözler Sohbet 2003- 2016 Canim.net Her hakki saklidir.