Güzel sözler | Fıkra | Hikaye | Şiir - Şair| Şarkı sözleri | Türküler | Sohbet odaları | Rüya | Sağlık | Biyografi | islam | Güzeller | Paylaş


Canim.net
Akorlar
Akor Ekle
Şarkı sözleri
Yabancı şarkı sözleri
Çeviriler
Türkü
A  B  C  Ç  D  E  F  G  Ğ  H  I  İ  J  K  L  M  N  O  Ö  P  R  S  Ş  T  U  Ü  V  Y  Z 



Vomited Anal tract tab - Carcass



Intro
e|---------------------------------------------------------------
B|---------------------------------------------------------------
G|---------------------------------------------------------------
D|--2---------3-2---------3-2---------3-2------------------------
A|--2-3-2-0---3-2-3-2-0---3-2-3-2-0---3-2------------------------
E|--0-------3-1-0-------3-1-0-------3-1-0------------------------

Riff 1
e|---------------------------------------------------------------
B|---------------------------------------------------------------
G|---------------------------------------------------------------
D|---------------------------------------------------------------
A|----3-2-0------------------------------------------------------
E|--0-------3-1-0------------------------------------------------

Riff 2
e|-----------------------|---------------------------------------
B|-----------------------|---------------------------------------
G|-----------------------|---------------------------------------
D|--------------2-2-2-2--|--------------3-3-3-3------------------
A|----3-2-0-----2-2-2-2--|----3-2-0-----3-3-3-3------------------
E|--0-------3-1-0-0-0-0--|--0-------3-0-1-1-1-1------------------

Riff 3
e|-----------------------|---------------------------------------
B|-----------------------|---------------------------------------
G|-----------------------|---------------------------------------
D|--------------2-2-2-2--|--------------5-5-3-3------------------
A|----3-2-0-----2-2-2-2--|----3-2-0-----5-5-3-3------------------
E|--0-------3-1-0-0-0-0--|--0-------3-0-3-3-1-1------------------

Riff 4
e|---------------------------------------------------------------
B|---------------------------------------------------------------
G|---------------------------------------------------------------
D|-----------------------------------------3-3-3-3---------------
A|----3-2-0-------3-2-0-------3-2-0--------3-3-3-3---------------
E|--0-------3-1-0-------3-1-0-------3-1-0--1-1-1-1---------------

Riff 5
e|---------------------------------------------------------------
B|---------------------------------------------------------------
G|---------------------------------------------------------------
D|-----------------------------------------5-5-3-3---------------
A|----3-2-0-------3-2-0-------3-2-0--------5-5-3-3---------------
E|--0-------3-1-0-------3-1-0-------3-1-0--3-3-1-1---------------

Chords played under solo
e|---------------------------------------------------------------
B|---------------------------------------------------------------
G|---------------------------------------------------------------
D|--7--7-7--8-8--3-3--6-6----------------------------------------
A|--7--7-7--8-8--3-3--6-6----------------------------------------
E|--5--5-5--6-6--1-1--4-4----------------------------------------




Vomited Anal tract tab - Carcass akoru
Vomited Anal tract tab - Carcass notaları,
Vomited Anal tract tab - Carcass tablar bas tablar akord akor oku



iletisim  Reklam  Gizlilik sözlesmesi
Diger sitelerimize baktiniz mi ? Radyo Dinle - milli piyango sonuclari - 2017 yeni yil mesajlari - Güzel sözler Sohbet 2003- 2016 Canim.net Her hakki saklidir.