Güzel sözler | Fıkra | Hikaye | Şiir - Şair| Şarkı sözleri | Türküler | Sohbet odaları | Rüya | Sağlık | Biyografi | islam | Güzeller | Paylaş


Canim.net
Akorlar
Akor Ekle
Şarkı sözleri
Yabancı şarkı sözleri
Çeviriler
Türkü
A  B  C  Ç  D  E  F  G  Ğ  H  I  İ  J  K  L  M  N  O  Ö  P  R  S  Ş  T  U  Ü  V  Y  Z 



Veremem Sana Acımı Tab - Düş Sokağı Sakinleri



3-0-----0-----0----0-----0-----0--------
4---4-----4-----4----4-----4-----4------
5-----5-----5----------5-----5----------
Sözcüklerim bulur

3---4-----4----------4-----4------------
4-----5-----5---5------5-----5---5------
5-7-----7-----7----7-----7-----7--------
aşığın ateşini

3-----0-----0----------0-----0----------
4---4-----4-----4----4-----4-----4------
5-5-----5-----5----5-----5-----5--------
Yıkar gider beni

3-----0-----0-----
4---4-----4-----4-
5-3-----3-----3---
ölüm

3-----0-----0----------0-----0---------
4---4-----4-----4----4-----4-----4-----
5-2-----2-----2----2-----2-----2-------
gibi
********

Bakışların deler içimdekileri

Kaldırıp atar beni ceset gibi

********


3-----0-----0----------0-----0---------
4---7-----7-----7----5-----5-----5-----
5-5-----5-----5----3-----3-----3-------
Arayıp bulmak neyi

3-----0-----0----------0-----0---------
4---4-----4-----4----4-----4-----4-----
5-2-----2-----2----2-----2-----2-------
değiştirir

3-----0-----0----------0-----0---------
4---7-----7-----7----5-----5-----5-----
5-5-----5-----5----3-----3-----3-------
Karşımda duruyor suretim

3-----0-----0----------0-----0---------
4---4-----4-----4----4-----4-----4-----
5-2-----2-----2----2-----2-----2-------
gülü bitirir

C Bm
Veremem sana acımı
G Bm
Kirlenir dünya
G Em
Şehrin boş sokakları
C G
Islanır göz yaşıyla
C Bm
Kovalar arabalar
G Bm
Arkamdaki aynayı
G Em
Kırılınca biter anlarım
C G
Düşümdeki rüya


Yollarım yorar yarin günahını
Döver olur beni boş kitap gibi
Hüzün aşkınadır aşık uykularım
Sever olur beni hançer gibi




Veremem Sana Acımı Tab - Düş Sokağı Sakinleri akoru
Veremem Sana Acımı Tab - Düş Sokağı Sakinleri notaları,
Veremem Sana Acımı Tab - Düş Sokağı Sakinleri tablar bas tablar akord akor oku



iletisim  Reklam  Gizlilik sözlesmesi
Diger sitelerimize baktiniz mi ? Radyo Dinle - milli piyango sonuclari - 2017 yeni yil mesajlari - Güzel sözler Sohbet 2003- 2016 Canim.net Her hakki saklidir.