Güzel sözler | Fıkra | Hikaye | Şiir - Şair| Şarkı sözleri | Türküler | Sohbet odaları | Rüya | Sağlık | Biyografi | islam | Güzeller | Paylaş


Canim.net
Akorlar
Akor Ekle
Şarkı sözleri
Yabancı şarkı sözleri
Çeviriler
Türkü
A  B  C  Ç  D  E  F  G  Ğ  H  I  İ  J  K  L  M  N  O  Ö  P  R  S  Ş  T  U  Ü  V  Y  Z 



Vefasız Tab - Haluk Levent



e -----------------5&7h8h10h12p10p8h10h12h13p12p10p8--------
B -----------8-6&8-----------------------------------h13p12p
G -----5-4-5------------------------------------------------
D -5--------------------------------------------------------
A ---7------------------------------------------------------
E ----------------------------------------------------------



-------------8&15-13-12h13p12h13p12-10h12p10h12p10--------
-10h12h13p12----------------------------------------------
----------------------------------------------------------
----------------------------------------------------------
----------------------------------------------------------
----------------------------------------------------------



-8h10p8h10p8--7h8p7h8p7---3&7-8-10-10-8p7h8h10p8p7---------
---------------------------------------------------10------
-----------------------------------------------------------
-----------------------------------------------------------
-----------------------------------------------------------
-----------------------------------------------------------



------17----17&20-19------------------------17---17&20-19--
---------------------20-17-20------------------------------
-2&14----14-------------------17-16-----2&14---14----------
------------------------------------17---------------------
-----------------------------------------------------------
-----------------------------------------------------------



-20-22-20-19-17-----------17-19-20-22-20-19-20-------------
----------------20-17&20-----------------------------------
-----------------------------------------------------------
-----------------------------------------------------------
-----------------------------------------------------------
-----------------------------------------------------------


-------17-19-20p19p17----17h19p20--------------------------
-12&17----------------20-----------------------------------
-----------------------------------------------------------
-----------------------------------------------------------
-----------------------------------------------------------
-----------------------------------------------------------




Vefasız Tab - Haluk Levent akoru
Vefasız Tab - Haluk Levent notaları,
Vefasız Tab - Haluk Levent tablar bas tablar akord akor oku



iletisim  Reklam  Gizlilik sözlesmesi
Diger sitelerimize baktiniz mi ? Radyo Dinle - milli piyango sonuclari - 2017 yeni yil mesajlari - Güzel sözler Sohbet 2003- 2016 Canim.net Her hakki saklidir.