Güzel sözler | Fıkra | Hikaye | Şiir - Şair| Şarkı sözleri | Türküler | Sohbet odaları | Rüya | Sağlık | Biyografi | islam | Güzeller | Paylaş


Canim.net
Akorlar
Akor Ekle
Şarkı sözleri
Yabancı şarkı sözleri
Çeviriler
Türkü
A  B  C  Ç  D  E  F  G  Ğ  H  I  İ  J  K  L  M  N  O  Ö  P  R  S  Ş  T  U  Ü  V  Y  Z 



Vazgeçemem Giriş Tab - Tarkan



e|---------------------------------------------------------|
B|----1--1-1-0-0---------1-0---0-0-------------0-----------|
G|---------------2-2-0-2-----------2-2-0-0---0---2---------|
D|--2--------------------------------------3---------------|
A|---------------------------------------------------------|
E|---------------------------------------------------------|

e|---------------------------------------------------------|
B|----0-1----------0-1-------------------------------------|
G|--2-------0-2--2---------0-------------------------------|
D|--------3------------2-3---------------------------------|
A|---------------------------------------------------------|
E|---------------------------------------------------------|




Vazgeçemem Giriş Tab - Tarkan akoru
Vazgeçemem Giriş Tab - Tarkan notaları,
Vazgeçemem Giriş Tab - Tarkan tablar bas tablar akord akor oku



iletisim  Reklam  Gizlilik sözlesmesi
Diger sitelerimize baktiniz mi ? Radyo Dinle - milli piyango sonuclari - 2017 yeni yil mesajlari - Güzel sözler Sohbet 2003- 2016 Canim.net Her hakki saklidir.