Güzel sözler | Fıkra | Hikaye | Şiir - Şair| Şarkı sözleri | Türküler | Sohbet odaları | Rüya | Sağlık | Biyografi | islam | Güzeller | Paylaş


Canim.net
Akorlar
Akor Ekle
Şarkı sözleri
Yabancı şarkı sözleri
Çeviriler
Türkü
A  B  C  Ç  D  E  F  G  Ğ  H  I  İ  J  K  L  M  N  O  Ö  P  R  S  Ş  T  U  Ü  V  Y  Z 



Vajina - Buz



GTR I
E G F# A
e-------------------------------------
B-------------------------------------
G-------------------------------------
D-------------------------------------
A-2-2---5-5-5---4-4-4--7-7-7----------
E-0-0---3-3-3---2-2-2--5-5-5----------

GTR II

e-------------------------------------
B-------------------------------------
G-9-9---12-12-12---11-11-11--14-14-14-
D-x-x----x--x--x---x--x--x----x--x--x-
A-7-7---10-10-10---9--9--9---12-12-12-
E-------------------------------------

GTR III
D C#
Yollara düştük
Peşinden koştuk
Uğruna sattık
Asıl sensin vajina

GTR IV (1:30)

e----------------------------------------
B----------------------------------------
G----------------------------------------
D-7-7-7--x-4-4-4-3-3-3-------------------
A-5-5-5--x-6-6-6-5-5-5-------------------
E----------------------------------------
Burayı tam çıkaramadım ama devamında bunun varyasyonlarını çalıyo


GTR V

e----------------------------------------
B----------------------------------------
G-------------2-2------------------------
D-2-2-5-5-4-4----------------------------
A----------------------------------------
E----------------------------------------
Burda çok seri bi şekilde wah yapmalısınız




SÖZLER
Güneşsiz bir mağrada
Yaşar sorunsuzca
Farkında olmasa da
Değer dünya kadar mala

Yollara düştük
Peşinden koştuk
Uğruna sattık
Asıl sensin vajina

Bir küçük kaygan vajina
Herkesin derdi onunla
Nasıl baksam tadına
Senin derdin bununla

Yollara düştük
Peşinden koştuk
Uğruna sattık
Asıl sensin vajina




Vajina - Buz akoru
Vajina - Buz notaları,
Vajina - Buz tablar bas tablar akord akor oku



iletisim  Reklam  Gizlilik sözlesmesi
Diger sitelerimize baktiniz mi ? Radyo Dinle - milli piyango sonuclari - 2017 yeni yil mesajlari - Güzel sözler Sohbet 2003- 2016 Canim.net Her hakki saklidir.