Güzel sözler | Fıkra | Hikaye | Şiir - Şair| Şarkı sözleri | Türküler | Sohbet odaları | Rüya | Sağlık | Biyografi | islam | Güzeller | Paylaş


Canim.net
Akorlar
Akor Ekle
Şarkı sözleri
Yabancı şarkı sözleri
Çeviriler
Türkü
A  B  C  Ç  D  E  F  G  Ğ  H  I  İ  J  K  L  M  N  O  Ö  P  R  S  Ş  T  U  Ü  V  Y  Z 



Rüzgar Gülü Tab - Teoman



INTRO SOLO (x2)

E--------------1-0----------------------|
B---------1-----------------------------|
G---2---2---3------2-0------------------| x2
D----------------------3--2h3p2h3--2~---|
A---------------------------------------|
E---------------------------------------|


E---------------------|-------------------------|
B----------8&11--10---|------------------8-11~~-|
G---------------------|-------------------------|
D---------------------|-------------------------|
A---------------------|-------------------------|
E---------------------|-------------------------|
..konuşmaya başladım.Dedim benim kadar yalnızsan,



E--------------------|-----------------------|
B--------------10~~--|------------------10~~-|
G--------------------|---------------12------|
D--------------------|-----------------------|
A--------------------|-----------------------|
E--------------------|-----------------------|
tek gecelik bir aşksan,omuzlarına abanan bir..



E-------------------------------------------|
B---------------------6-5-6-5-8-5---6-5-6~--|
D-------------------------------------------|
G-------------------------------------------|
A-------------------------------------------|
E-------------------------------------------|
Hiç ölümü düşündün mü?


SOLO (x2)

E--------------------------------------------------|
B--------------------------------------------------|
G---10p9-10--------9h10-9-7---9-7-9--------7-9-10--|
D-----------7~----------------------5~-------------|
A--------------------------------------------------|
E--------------------------------------------------|



E--------------------------------|------------------------|
B--8&13-11-10-8---10h11-10-8-10--|--10&11-8h10-10&11-8h10-|
G--------------------------------|------------------------|
D--------------------------------|------------------------|
A--------------------------------|------------------------|
E--------------------------------|------------------------|
(Bu ölçü çok hızlı çalınacak)


& = Slide up
~ = Vibrato
h = Hammer-on
p = Pull-off




Rüzgar Gülü Tab - Teoman akoru
Rüzgar Gülü Tab - Teoman notaları,
Rüzgar Gülü Tab - Teoman tablar bas tablar akord akor oku



iletisim  Reklam  Gizlilik sözlesmesi
Diger sitelerimize baktiniz mi ? Radyo Dinle - milli piyango sonuclari - 2017 yeni yil mesajlari - Güzel sözler Sohbet 2003- 2016 Canim.net Her hakki saklidir.