Güzel sözler | Fıkra | Hikaye | Şiir - Şair| Şarkı sözleri | Türküler | Sohbet odaları | Rüya | Sağlık | Biyografi | islam | Güzeller | Paylaş


Canim.net
Akorlar
Akor Ekle
Şarkı sözleri
Yabancı şarkı sözleri
Çeviriler
Türkü
A  B  C  Ç  D  E  F  G  Ğ  H  I  İ  J  K  L  M  N  O  Ö  P  R  S  Ş  T  U  Ü  V  Y  Z 



Rus Kozmonotları Sen Varsın - Dırec-t



giriş (aynı zamanda sözler)
-------------------------5---------7--------5----------7-------
-0-0-0-0-0-0-------------5---------7--------5----------7---0---
-1-1-1-1-1-1-------------6---------8--------6----------7---1---
-2-2-2-2-2-2-------------7---------9--------7----------9---2---
-2-2-2-2-2-2-------------7---------9--------7----------9---2---
-0-0-0-0-0-0-------------5---------7--------5----------7---0---
rus kozmonotları......ama sen....ama sen..ama sen.....varsııın...

---------------------
--0-0-0-0--0-0-0-0---
-1-0-1-1--1-0-1-1--- ama sen varsınlardan sonra böyle
-2-2-2-2--2-2-2-2--- bir atraksiyona giriyor
-2-2-2-2--2-2-2-2---
-0-0-0-0--0-0-0-0---

ve arabesk kısmı giriyor ve sözlerin arasında
---------------------------
-0-0-0-0-0-0--0-0-0-0-0----
-1-0-1-1-1-0--1-1-1-1-1----
-2-2-2-2-2-2--2-2-2-2-2----
-2-2-2-2-2-2--2-2-2-2-2----
-0-0-0-0-0-0--0-0-0-0-0----


not:akorların sayısı size ait....bunlar şarkının sonuna kadar geçerli
ama sonunda power akorlar giriyor aşağıdaki gibi....

-----------------------------------------------------------
-----------------------------------------------------------
-----------------------------------------------------------
-7-7-7-7-7-7-7-7-7------------------9-9-9-9-9-9-9-9-9-9-9--
-7-7-7-7-7-7-7-7-7------------------9-9-9-9-9-9-9-9-9-9-9--
-5-5-5-5-5-5-5-5-5------------------7-7-7-7-7-7-7-7-7-7-7--
dün gece televizyondaki............benzettiiiiiiiim

3 kere üsttekini yaptıktan sonra alttakini yapıyor ve...
---------------------------
-------------------------- ama sen varsın derken yukardaki
-------------------------- baştaki akorlara vuruyor ve
-9---8---7-----9---8---7-- bitiriyor
-9---8---7-----9---8---7--
-7---6---5-----7---6---5--





Rus Kozmonotları Sen Varsın - Dırec-t akoru
Rus Kozmonotları Sen Varsın - Dırec-t notaları,
Rus Kozmonotları Sen Varsın - Dırec-t tablar bas tablar akord akor oku



iletisim  Reklam  Gizlilik sözlesmesi
Diger sitelerimize baktiniz mi ? Radyo Dinle - milli piyango sonuclari - 2017 yeni yil mesajlari - Güzel sözler Sohbet 2003- 2016 Canim.net Her hakki saklidir.