Güzel sözler | Fıkra | Hikaye | Şiir - Şair| Şarkı sözleri | Türküler | Sohbet odaları | Rüya | Sağlık | Biyografi | islam | Güzeller | Paylaş


Canim.net
Akorlar
Akor Ekle
Şarkı sözleri
Yabancı şarkı sözleri
Çeviriler
Türkü
A  B  C  Ç  D  E  F  G  Ğ  H  I  İ  J  K  L  M  N  O  Ö  P  R  S  Ş  T  U  Ü  V  Y  Z 



Ruptured In Purulence tab - Carcass



BASS:

INTRO (ON A 5-STRING BASS)
|-----------------------------------------|
|-----------------------------------------|
|-----------------------------------------| REPEAT 4x
|-12-----------------12---12-----1-----|
|-----0-0-0-0-0-0-0-0-----0-----0-2---3-4-|
8x

GUITAR:

RIFF A
|-----------------------------------------|
|-----------------------------------------|
|-----------------------------------------| REPEAT 4x
|-34-----------------34---34-----3-----|
|-12-2-2-2-2-2-2-2-2-12-2-12-2-4-1-5-6-|
|-----0-0-0-0-0-0-0-0-----0-----0-2---3-4-|
8x

RIFF B ([P]=Pause) RIFF C
|---------------------------------| |----------------|
|---------------------------------| |----------------|
|---------------------------------| REPEAT 2x |----------------|
|-34---------3---------34-------| |------------2-3-|
|-12-2-----4-1-5-6-4-5-12-2-----| |-2--2-2-2-2-----|
|-----0-[P]-2---3-4-2-3-----0-[P]-| |-0--0-0-0-0-----|


NOW REPEAT RIFF A, RIFF B AND RIFF C THEN:

RIFF D
PLAY THIS RIFF FASTER. THE CHORD IN THE BRACKETS IS TO BE PLAYED
ONLY ON THE FOURTH REPEAT.
|---------------------------------------------|
|---------------------------------------------|
|---------------------------------------------| REPEAT 4x
|-34-----------------34---34-----3---------|
|-12-2-2-2-2-2-2-2-2-12-2-12-2-4-1-5-6-(4)-|
|-----0-0-0-0-0-0-0-0-----0-----0-2---3-4-(2)-|

PAUSE. THEN PLAY:




RIFF E RIFF F
|------------------------| |-----------------------------------|
|------------------------| |-----------------------------------|
|------------------------| REPEAT 4x |-----------------------------------|
|------------------------| |---5-------5-------5-------5-----4-|
|-22222222---------------| |-3-3-5-6-3-3-5-4-3-3-5-6-3-3-56-2-|
|-00000000-3-2-5-4-3-2-3-| |-1---3-4-1---3-2-1---3-4-1---34---|
8x

REPEAT RIFF F SLOWER. THEN:

RIFF G
|------------------------------------------|
|------------------------------------------|
|------------------------------------------|
|----------------7777----------3333--------|
|-33333333-77-66-5555-33333333-1111--22-44-|
|-11111111-55-44------11111111-------00-22-|
8x 8x


RIFF H
|-------------------------------------|
|-------------------------------------|
|-------------------------------------|
|----------------7777----------3~-----|
|-33333333-77-66-5555-33333333-1~-2-4-|
|-11111111-55-44------11111111----0-2-|
8x 8x

RIFF I
|---------------------------------|
|---------------------------------|
|---------------------------------| REPEAT 4x
|--------------7~----------3~-----|
|-33333333-7-6-5~-33333333-1~-2-4-|
|-11111111-5-4----11111111----0-2-|
8x 8x

THEN REPEAT RIFF E 4x.
REPEAT RIFF F AND THEN PLAY IT AGAIN SLOWER.

RIFF J
|------------------------------------------|
|------------------------------------------|
|------------------------------------------| LEAD
|----------------7777----------3333--------| GUITAR
|-33333333-77-66-5555-33333333-1111--22-44-|
|-11111111-55-44------11111111-------00-22-|
| 8x 8x | REPEAT 2x
| |
|------------------------------------------|
|------------------------------------------| RYTHM
|------------------------------------------| GUITAR
|----------------7~------------3~----------| AND
|-3--------7--6--5~---3--------1~----2--4--| BASS
|-1-[P]----5--4-------1-[P]----------0--2--|


REPEAT RIFF I 4x THEN:

RIFF K
|--------------------------------------|
|--------------------------------------|
|--------------------------------------| REPEAT 4x
|--------------------------------------|
|-5555-66-44-2222-4444---6-7---4-5-6-3-|
|-3333-44-22-0000-2222-5-----3-----4-1-|

PLAY SOLO OVER THE LAST TWO REPEATS OF RIFF K
NOTE: THIS IS NOT THE ENTIRE SOLO,
|---------------------------------------------------------------|
|---------------------------------------------------------------|
|--------------------------------------19-18-17-19--19-18-17----|
|--------------17-17-17-17-19-19-19-19-----------------------19-|
|-19-19-19-19---------------------------------------------------|
|---------------------------------------------------------------|

RIFF L RIFF M
|-----------------| |--------------|
|-----------------| |--------------|
|-----------------| REPEAT 2x |--------------| REPEAT 2x
|------45--------| |--------------|
|-3~-5-23-3~-5-6-| |-3~-5~-3~-5-6-|
|-1~-3-----1~-3-4-| |-1~-3~-1~-3-4-|

REPEAT RIFF M 4x BUT SLOWER.

REPEAT RIFF L 2x AND RIFF M 2x REGULAR SPEED THEN 4x AT A SLOWER
SPEED.

RIFF N
THE CHORD IN THE BRACKETS IS TO BE PLAYED ONLY ON THE FOURTH REPEAT.
|---------------------------------------------|
|---------------------------------------------|
|---------------------------------------------| REPEAT 4x
|-34-----------------34---34-----3---------|
|-12-2-2-2-2-2-2-2-2-12-2-12-2-4-1-5-6-(4)-|
|-----0-0-0-0-0-0-0-0-----0-----0-2---3-4-(2)-|




Ruptured In Purulence tab - Carcass akoru
Ruptured In Purulence tab - Carcass notaları,
Ruptured In Purulence tab - Carcass tablar bas tablar akord akor oku



iletisim  Reklam  Gizlilik sözlesmesi
Diger sitelerimize baktiniz mi ? Radyo Dinle - milli piyango sonuclari - 2017 yeni yil mesajlari - Güzel sözler Sohbet 2003- 2016 Canim.net Her hakki saklidir.