Güzel sözler | Fıkra | Hikaye | Şiir - Şair| Şarkı sözleri | Türküler | Sohbet odaları | Rüya | Sağlık | Biyografi | islam | Güzeller | Paylaş


Canim.net
Akorlar
Akor Ekle
Şarkı sözleri
Yabancı şarkı sözleri
Çeviriler
Türkü
A  B  C  Ç  D  E  F  G  Ğ  H  I  İ  J  K  L  M  N  O  Ö  P  R  S  Ş  T  U  Ü  V  Y  Z 



Renaissance tab - Kataklysm



___ - palm mute
& - slide
h - hammer on
p - pull off
" - tremelo pick
<#> - Natural Harmonic


RIFF A:

|--------------------------------------|
|-3-3-3--3-3-3--3-3-3--3-3-3--3-3--3-3-|
|-3-3-3--2-2-2--3-3-3--2-2-2--3-3--2-2-|
|--------------------------------------|
|--------------------------------------|
|--------------------------------------| 3x

|-----------------------------------|
|-3-3-3--3-3-3--3-3-3-&4-4-4-4--3-3-|
|-3-3-3--2-2-2--3-3-3-&5-5-5-5--2-2-|
|-----------------------------------|
|-----------------------------------|
|-----------------------------------|

|--------------------------------------|
|-3-3-3--3-3-3--3-3-3--3-3-3--3-3--3-3-|
|-3-3-3--2-2-2--3-3-3--2-2-2--3-3--2-2-|
|--------------------------------------|
|--------------------------------------|
|--------------------------------------| 3x

|-----------------------------------|
|-3-3-3--3-3-3--3-3-3-&4-4-4-4--3-3-|
|-3-3-3--2-2-2--3-3-3-&5-5-5-5--2-2-|
|-----------------------------------|
|-----------------------------------|
|-----------------------------------|


RIFF B:

|-----------------------------------------
|-----------------------------------------
|-----------------------------------------
|-----0-2-3--2h3p2--------0-2-3--2h3p2----
|---0--------------0----0--------------0--
|-3-------------------3-------------------
_______ _______

------------------------------------|
------------------------------------|
------------------------------------|
-----1-3-&5--3---------3-5-&7--5----|
-1-0------------6--3-0------------8-|
------------------------------------| 4x
_______ _______


RIFF A


RIFF C:

|---------------------------------------------------------|
|----------------------------------3-3-------3-3------3-3-|
|-7-7--7-7--7-7--7-7--7-7-7--3-3--3-3--3-3--3-3--3-3-3-3-|
|-5-5--8-8--5-5--8-8--5-5-8--1-1-------1-1-------1-1-----|
|---------------------------------------------------------|
|---------------------------------------------------------| 4x

(Gtr 1)
|---------------------------------------------------------|
|----------------------------------3-3-------3-3------3-3-|
|-7-7--7-7--7-7--7-7--7-7-7--3-3--3-3--3-3--3-3--3-3-3-3-|
|-5-5--8-8--5-5--8-8--5-5-8--1-1-------1-1-------1-1-----|
|---------------------------------------------------------|
|---------------------------------------------------------| 4x

(Gtr 2)
|------------------------------------------------
|-10-10-10--8-8-8--10-10-10--8-8-8--12-12--10-10-
|------------------------------------------------
|------------------------------------------------
|------------------------------------------------
|------------------------------------------------
_______________________________________________

------------------------------------------------|
-11-11-11--8-8-8--10-10-10----------------------|
---------------------------10-10-10-10-10-10-10-|
------------------------------------------------|
------------------------------------------------|
------------------------------------------------| 4x
______________________________________________

(Gtr 1)
|---------------------------------------------------------|
|----------------------------------3-3-------3-3------3-3-|
|-7-7--7-7--7-7--7-7--7-7-7--3-3--3-3--3-3--3-3--3-3-3-3-|
|-5-5--8-8--5-5--8-8--5-5-8--1-1-------1-1-------1-1-----|
|---------------------------------------------------------|
|---------------------------------------------------------| 4x

(Gtr 2)
|---------------------------------------------------------|
|---------------------------------------------------------|
|-<5>-----------------------------------------------------|
|---------------------------------------------------------|
|---------------------------------------------------------|
|---------------------------------------------------------|


RIFF D:

|-------------------------------------------|
|-------------------------------------------|
|-----------------2"--------2"--------------|
|-----3"-2"-3"-------3"--------3"-----2"-3"-|
|-0"-----------0"---------------------------|
|-----------------------1"--------0"--------| 4x


CHORUS:

|------------------------------------------------------
|------------------------------------------------------
|---2------2------2----5-5-----------------------------
|-2-2------2------2----5-5----3-3------3----2-2----5-5-
|-0-0--0-0-0--0-0-0--3-3-3----3-3------3----2-2----5-5-
|---------------------------1-1-1--1-1-1--0-0-0--3-3-3-
___ ___ _ _ ___ _ _

--------------------------------------------------------
--------------------------------------------------------
---2-2------2------2----5-5-----------------------------
---2-2------2------2----5-5----3-3------3----2-2----5-5-
-0-0-0--0-0-0--0-0-0--3-3-3----3-3------3----2-2----5-5-
-----------------------------1-1-1--1-1-1--0-0-0--3-3-3-
_ ___ ___ _ _ ___ _ _

--------------------------------------------------------
--------------------------------------------------------
---2-2------2------2----5-5-----------------------------
---2-2------2------2----5-5----3-3------3----2-2----5-5-
-0-0-0--0-0-0--0-0-0--3-3-3----3-3------3----2-2----5-5-
-----------------------------1-1-1--1-1-1--0-0-0--3-3-3-
_ ___ ___ _ _ ___ _ _

------------------------------------------------------------|
------------------------------------------------------------|
---2-2------2------2----5-5---------------------------------|
---2-2------2------2----5-5----3-3------3----2-2----5-5-5-5-|
-0-0-0--0-0-0--0-0-0--3-3-3----3-3------3----2-2----5-5-5-5-|
-----------------------------1-1-1--1-1-1--0-0-0--3-3-3-3-3-|
_ ___ ___ _ _ ___ _ _


RIFF D - 4x


CHORUS - 4x


RIFF D


RIFF E:

|-------------------------------|
|-------------------------------|
|--------------3----------------|
|--------------------------3----|
|---------------------1---------|
|-3-----------------------------|

|-------------------------------|
|-------------------------------|
|--------------3----------------|
|--------------------------3----|
|-3-------------------1---------|
|-3-----------------------------| 3x


RIFF C - 5x


RIFF D - 4x


CHORUS - 4x


RIFF D - 4x


CHORUS - 4x


RIFF D:

|--------------------------------------------------------|
|--------------------------------------------------------|
|-----------------2"--------2"---------------------------|
|-----3"-2"-3"-------3"--------3"-----2"-3"-5------------|
|-0"-----------0"---------------------------5------------|
|-----------------------1"--------0"--------3------------|


OUTRO:

Note - Gtr 2 is occasionally strumming accross the strings
at the headstock (between the pegs and first fret).

(Gtr 1 - clean)
|-----------------------------------------------------------------|
|-3---3---3---3---4---4---1---1---3---3---3---3-----1---1---------|
|---3---3---3---3---5---5---2---2---3---3---3---3-2---2---0-3---2-|
|-------------------------------------------------------------3---|
|-----------------------------------------------------------------|
|-----------------------------------------------------------------| 2x

|----------------------------------------------------------------------|
|-3---3---3---3---4---4---1---1---3---3---3---3-----1---1---------3----|
|---3---3---3---3---5---5---2---2---3---3---3---3-2---2---0-3---2-3----|
|-------------------------------------------------------------3--------|
|----------------------------------------------------------------------|
|----------------------------------------------------------------------|




Renaissance tab - Kataklysm akoru
Renaissance tab - Kataklysm notaları,
Renaissance tab - Kataklysm tablar bas tablar akord akor oku



iletisim  Reklam  Gizlilik sözlesmesi
Diger sitelerimize baktiniz mi ? Radyo Dinle - milli piyango sonuclari - 2017 yeni yil mesajlari - Güzel sözler Sohbet 2003- 2016 Canim.net Her hakki saklidir.