Güzel sözler | Fıkra | Hikaye | Şiir - Şair| Şarkı sözleri | Türküler | Sohbet odaları | Rüya | Sağlık | Biyografi | islam | Güzeller | Paylaş


Canim.net
Akorlar
Akor Ekle
Şarkı sözleri
Yabancı şarkı sözleri
Çeviriler
Türkü
A  B  C  Ç  D  E  F  G  Ğ  H  I  İ  J  K  L  M  N  O  Ö  P  R  S  Ş  T  U  Ü  V  Y  Z 



Readytab - Creed



intro without distortion:
e---------------------------------------------------------
b---------------------------------------------------------
g---------------------------------------------------------
d---------------------------------------------------------
a-3--5--3-5-5-3--5--5b--3--5--3-5-5------0--3--3&5b-------
d-0--0--0-0-0-0--0--0---0--0--0-0-0---0-------------------


(distortion)
e---------------------------------------------------------
b---------------------------------------------------------
g---------------------------------------------------------
d-------------------------------------1-1-1-1h3-----------
a-3--5--3-5-5-3--5--5b--3--5--3-5-5---1-1-1-1h3-----------
d-0--0--0-0-0-0--0--0---0--0--0-0-0---1-1-1-1h3-----------


The verse part is a little different than the intro....
so dont play the intro for the verse..
e---------------------------------------------------------
b---------------------------------------------------------
g---------------------------------------------------------
d--------------------------------------1-1-1-1h3----------
a-3--5-5-3-5--3--5-5-5b--3--5-5-3-5-5--1-1-1-1h3----------
d-0--0-0-0-0--0--0-0-0---0--0-0-0-0-0--1-1-1-1h3----------

e---------------------------------------------------------
b---------------------------------------------------------
g---------------------------------------------------------
d---------------------------------------------------------
a-3--5-5-3-5--3--5-5-5b--3--5-5-3-5b-b--------------------
d-0--0-0-0-0--0--0-0-0---0--0-0-0-0-----------------------


This is where he starts singing:
e---------------------------------------------------------
b---------------------------------------------------------
g---------------------------------------------------------} 4 times
d--------------------------------------1-1-1-1h3----------}
a-3--5-5-3-5--3--5-5-5b--3--5-5-3-5-5--1-1-1-1h3----------
d-0--0-0-0-0--0--0-0-0---0--0-0-0-0-0--1-1-1-1h3----------

Chorus:
"...Are you ready...."
e---------------------------------------------------------
b---------------------------------------------------------
g---------------------------------------------------------
d---10-10-10-10-9-9-9-9--5--0-----------------------------
a---10-10-10-10-9-9-9-9--5--0--go right into the next part
d---10-10-10-10-9-9-9-9--5--0-----------------------------

(I`m not real sure about this part)
e---------------------------------------------------------
b---------------------------------------------------------
g---------------------------------------------------------
d-5h7-0-2h4-0-0h2-0-4-2-0-0h2-0-0-0-4-2-0-----------------
a---------------------------------------------------------
d---------------------------------------------------------

This is the real complicated part "10,9,8,7,6,5,4,3,2,1"
e-----5-3-2-----------------------------------------------
b-----------0-0-1-0-----------------------3---------------
g-------------------2---0-0-2---0-4-0-4-5---5-4-2---------
d---------------------4-------4---------------------------
a---------------------------------------------------------
d---------------------------------------------------------

"Life has just begun, life has just begun"
e---------------------------------------------------------
b---------------------------------------------------------
g---------------------------------------------------------
d-10-12-16-14-17-16-10-12-16-14-17-16---------------------
a-10-12-16-14-17-16-10-12-16-14-17-16---a couple times----
d-10-12-16-14-17-16-10-12-16-14-17-16---------------------




Readytab - Creed akoru
Readytab - Creed notaları,
Readytab - Creed tablar bas tablar akord akor oku



iletisim  Reklam  Gizlilik sözlesmesi
Diger sitelerimize baktiniz mi ? Radyo Dinle - milli piyango sonuclari - 2017 yeni yil mesajlari - Güzel sözler Sohbet 2003- 2016 Canim.net Her hakki saklidir.