Güzel sözler | Fıkra | Hikaye | Şiir - Şair| Şarkı sözleri | Türküler | Sohbet odaları | Rüya | Sağlık | Biyografi | islam | Güzeller | Paylaş


Canim.net
Akorlar
Akor Ekle
Şarkı sözleri
Yabancı şarkı sözleri
Çeviriler
Türkü
A  B  C  Ç  D  E  F  G  Ğ  H  I  İ  J  K  L  M  N  O  Ö  P  R  S  Ş  T  U  Ü  V  Y  Z 



R**k The Vote tab - Carcass



Tuning: standard (E A D G B E) but dropped 2.5 steps down


*Only my second tab ever
*Will put up solo soon...


-RIFF 1-
|--------------------------------------------------------------------|
|--------------------------------------------------------------------|
|--------------------------7-----------------------------------------|
|---7-9-7-10-9----7-7-9-10---10-9-7--7-9-7-10-9---------7----7-9-----|(x2)
|--------------10-------------------------------10-8-10---10---------|
|--------------------------------------------------------------------|
. . . . . . . . . . . . . .

-RIFF 2-
|-------------------------------------------------------------------|
|-------------------------------------------------------------------|
|-------------------------------------------------------------------|
|---2---------------2--------------2--------------------------------|(x2)
|---0--0-2-0-3-2----0--0-2-3-5-3-2-0--0-2-0-3-2---------------------|
|-----------------3-----------------------------3-1-3-5-3-5-7-------|
. . . . . . . . . . . . . . . .

|-----------------------|
|-----------------------|
|-----------------------|
|-----------------------|
|---3--------5----------|
|---1--------3----------|


|--------------------------------------|
|--------------------------------------|
|----------------------------7---------|
|---7-7-9-7-10-9----7-7-9-10---10-9----|
|----------------10--------------------|
|--------------------------------------|
. . . . . . . . . . .

|-----------------------|
|-----------------------|
|-----------------------|
|-----------------------|
|---3--------5----------|
|---1--------3----------|


|--------------------------------------|
|--------------------------------------|
|----------------------------7---------|
|---7-7-9-7-10-9----7-7-9-10---10-9----|
|----------------10--------------------|
|--------------------------------------|
. . . . . . . . . . .

|-----------------------|
|-----------------------|
|-----------------------|
|-----------------------|
|---3--------5----------|
|---1--------3----------|


|-----------------------|
|-----------------------|
|----------10-9-7-------|
|-----------------9~----|
|---3-------------------|
|---1-------------------|


| ----------------------|
|-----------------------|
|----------10-9-7-9~----|
|-----------------------|
|---3------------------|
|---1------------------|

-RIFF 2-
| ---------------------------------------------------------------------|
|----------------------------------------------------------------------|
|----------------------------------------------------------------------|
|---2-2---2-2---2-2---2-2------------2-2---2-2---2-2---2-2------------|(x2)
|---0-0---0-0---0-0---0-0------3p2---0-0---0-0---0-0---0-0------3p2---|
|---------------------------0-3------------------------------0-3-------|




R**k The Vote tab - Carcass akoru
R**k The Vote tab - Carcass notaları,
R**k The Vote tab - Carcass tablar bas tablar akord akor oku



iletisim  Reklam  Gizlilik sözlesmesi
Diger sitelerimize baktiniz mi ? Radyo Dinle - milli piyango sonuclari - 2017 yeni yil mesajlari - Güzel sözler Sohbet 2003- 2016 Canim.net Her hakki saklidir.