Güzel sözler | Fıkra | Hikaye | Şiir - Şair| Şarkı sözleri | Türküler | Sohbet odaları | Rüya | Sağlık | Biyografi | islam | Güzeller | Paylaş


Canim.net
Akorlar
Akor Ekle
Şarkı sözleri
Yabancı şarkı sözleri
Çeviriler
Türkü
A  B  C  Ç  D  E  F  G  Ğ  H  I  İ  J  K  L  M  N  O  Ö  P  R  S  Ş  T  U  Ü  V  Y  Z 



Pyosisified Still Rotten To The Gore tab - Carcass



Riff 1
|------------------------------||------------|
|------------------------------||------------|
|------------------------------||------------|
|----------------------------5-||------------|
|-2----5-6----2-5------------3-||2h3p2p0-4-5-|
|-0-00-3-4-00-0-3-000-000-00---||--------2-3-|
.. .. ... ... ..

Riff 2
|-------------------------------------------|
|-------------------------------------------|
|-------------------------------------------|
|-----------------2---2---------------------|
|-4---4---4---5---0-000-000-000-0000--------|
|-2-222-222-333-----------------------------|
.. .. .. .. ... ... ....

Riff 3
|-----------------------------||-------------|
|-----------------------------||-------------|
|-----------------------------||-------------|
|---------------------------5-||-------------|
|-2----2-3&6-----2-5--------3-||-2h3p2p0-4-5-|
|-0-00-0-1&4-000-0-3-000000---||---------2-3-|
.. ... ......

Riff 4
|-----------------||----------------||----------------||----------------|
|-----------------||----------------||----------------||----------------|
|-----------------||----------------||----------------||----------------|
|-----------------||----------------||----------------||----------------|
|-4---2-4-5---4-5-||7-7---7-7-7---7-||7-------7-------||7-------7-5-4-5-|
|-2---0-2-3---2-3-||5-5---5-5-5---5-||5-5555555-555555||5-5555555-3-2-3-|
...... ...... ......

Riff 5
|-------------------------------------------------|
|-------------------------------------------------|
|-------------------------------------------------|
|-------------------------------------------------|
|-2---5---8--------2---5---8----2---5---8---7---6-|
|-0---3---6----000-0---3---6----0---3---6---5---4-|
...

Im still working on the riffs that should be here.


Riff 8
|---------------------------------||--------|
|---------------------------------||--------|
|---------------------------------||--------|
|---------------------------------||-4------|
|-2-7p6---6p5---5p4---4p3----3p2--||--------|
|-0-----0-----0-----0-----0-------||--------|
. . . .

Riff 9
|---------------------||----||------|
|---------------------||----||------|
|---------------------||----||------|
|---------------------||----||------|
|-2-------3---2-------||5-3-||5&6-3-|
|-0-0-0-0-1-0-0-0-0-0-||3-1-||3&4-1-|
. . . . . . .




Pyosisified Still Rotten To The Gore tab - Carcass akoru
Pyosisified Still Rotten To The Gore tab - Carcass notaları,
Pyosisified Still Rotten To The Gore tab - Carcass tablar bas tablar akord akor oku



iletisim  Reklam  Gizlilik sözlesmesi
Diger sitelerimize baktiniz mi ? Radyo Dinle - milli piyango sonuclari - 2017 yeni yil mesajlari - Güzel sözler Sohbet 2003- 2016 Canim.net Her hakki saklidir.