Güzel sözler | Fıkra | Hikaye | Şiir - Şair| Şarkı sözleri | Türküler | Sohbet odaları | Rüya | Sağlık | Biyografi | islam | Güzeller | Paylaş


Canim.net
Akorlar
Akor Ekle
Şarkı sözleri
Yabancı şarkı sözleri
Çeviriler
Türkü
A  B  C  Ç  D  E  F  G  Ğ  H  I  İ  J  K  L  M  N  O  Ö  P  R  S  Ş  T  U  Ü  V  Y  Z 



Psychotic Precision tab - Cannibal Corpse



Both guitars 8 times
|-riff-A-------------------|
|--------------------------|
|---------------------ph---|
|---------------------4----|
|--------------------------|
|-5-4-0-7-6-0-3-2-0--------|
. . . . . . . . .

both guitars 2 times
|-riff-B----------------------|
|-----------------------------|
|---------0034300034300067640-|
|-----------------------------|
|-3---------------------------|
|-1---0-----------------------|
. .

guitar one 4 times&guitar two 2 times
|-riff-C-----------------------------|
|------------------------------------|
|-11111111---------------------------|
|---------3333-----------------------|
|-------------55---------------------|
|------------------4-7-3-6-2-5-1-4---|
. . . . . . . .

guitar two on third time
|-riff-C-----------------------------|
|------------------------------------|
|-44444444---------------------------|
|---------6666-----------------------|
|-------------88---------------------|
|------------------4-7-3-6-2-5-1-4---|
. . . . . . . .

guitar two on fourth time
|-riff-C-----------------------------|
|------------------------------------|
|-44444444---------------------------|
|---------6666-----------------------|
|-------------88---------------------|
|------------------7-10-6-9-5-8-4-7--|
. . . . . . . .

guitar one 4 times&guitar two 2 times
|-riff-B----------------------|
|-----------------------------|
|---------0034300034300067640-|
|-----------------------------|
|-3---------------------------|
|-1---0-----------------------|
. .
guitar two on third & fourth time
|-riff-B-----------------------|
|------------------------------|
|---------00676000676000910970-|
|------------------------------|
|-3----------------------------|
|-1---0------------------------|
. .
guitar one 4 times&guitar two 2 times
|-riff-D--------------------------------------------------------------|
|---------------------------------------------------------------------|
|---------------------------------------------------------------------|
|-5--7--------8--7--8--7--------8--7--8--7--------8--7--555566335566--|
|-3--5--8--7--6--5--6--5--8--7--6--5--6--5--8--7--6--5----------------|
|-------6--5--------------6--5--------------6--5----------------------|
. . . . . . . . . . . . . . . . . .

guitar two on third & fourth time
|-riff-D--------------------------------------------------------------|
|---------------------------------------------------------------------|
|---------------------------------------------------------------------|
|-5--7--------8--7--8--7--------8--7--8--7--------8--7--888899668899--|
|-3--5--8--7--6--5--6--5--8--7--6--5--6--5--8--7--6--5----------------|
|-------6--5--------------6--5--------------6--5----------------------|
. . . . . . . . . . . . . . . . . .

both guitars 2 times
|-riff-E----------------------------------------------------------------|
|-----------------------------------------------------------------------|
|------------0--1--0--1--0--1--0--1-------------1--0--1--0--1--0--1--0--|
|-5--3-&-6--0--1--0--1--0--1--0--1--5--3-&-6--1--0--1--0--1--0--1--0--|
|-----------------------------------------------------------------------|
|-3--1-&-4--------------------------3--1-&-4--------------------------|
. . . . . . . . . . . . . . . .


guitar one 1 time
|-riff-F-------------------------------------------------------------|
|--------------------------------------------------------------------|
|-------------------------------------------------------------6------|
|-6--5-----3h6------6--5--------------6--5--------5-----6--------6h--|
|-6--5--7-------5h--6--5--7--4h7------6--5--7--5-----4-----4---------|
|-------7-----------------7-------6h--------7------------------------|
. . . . . . . . . . . .


guitar two 1 time
|-riff-F-------------------------------------------------------------|
|--------------------------------------------------------------------|
|--------------------------------------------------------------------|
|-6--5--------------6--5--------------6--5---------------------------|
|-6--5--7--3--------6--5--7--3--------6--5--7--5---------------------|
|-------7--3--------------7--3--------------7------------------------|
. . . . . . . . .

again riff D = 4 times
again riff E = 2 times
again riff F = 1 time
again riff A = 8 times

guitar one 4 times
|-riff-G----------------|
|-----------------------|
|-----------------------|
|-----------------2--2--|
|--------9h----4--2--2--|
|-3--&--10--0--6--0--0--|
. . .

guitar two 4 times (chords)
|-riff-G----------------|
|-----------------------|
|-----------------------|
|-----------------2--2--|
|-----------------2--2--|
|-----------------0--0--|
. .

both guitars 8 times
|-----------------------|
|-----------------------|
|-----------------------|
|-----------------2--2--|
|--------9h----4--2--2--|
|-3--&--10--0--6--0--0--|
. . .

both guitars 1 time only guitar one
|-riff-H-------------------------------------------|-----------------|
|--------------------------------------------------|-----------------|
|--------------------------------------------------|-----------------|
|--------------------------------------------------|2222222222222222-|
|--------9h----22222-4---5---334422222-4---3-------|-----------------|
|-3--&--10--0--------2-0-3-0-----------2-0-1-0-3300|-----------------|
. . . . . . . .

again riff G = 2 times (guitar two = chords)
again riff G = 8 times (both guitars)
again riff H = 1 time

again riff A under solo = 8 times
again riff B under solo = 2 times
again riff C under solo = 4 times

again riff B = 4 times
again riff D = 4 times



both guitars 2 times
|-riff-E----------------------------------------------------------------|
|-----------------------------------------------------------------------|
|------------0--1--0--1--0--1--0--1-------------1--0--1--0--1--0--1--0--|
|-5--3-&-6--0--1--0--1--0--1--0--1--5--3-&-6--1--0--1--0--1--0--1--0--|
|-----------------------------------------------------------------------|
|-3--1-&-4--------------------------3--1-&-4--------------------------|
. . . . . . . . . . . . . . . .
guitar one 2 times
|-riff-E----------------------------------------------------------------|
|-----------------------------------------------------------------------|
|------------0--1--0--1--0--1--0--1-------------1--0--1--0--1--0--1--0--|
|-5--3-&-6--0--1--0--1--0--1--0--1--5--3-&-6--1--0--1--0--1--0--1--0--|
|-----------------------------------------------------------------------|
|-3--1-&-4--------------------------3--1-&-4--------------------------|
. . . . . . . . . . . . . . . .
guitar two 2 times
|-riff-E----------------------------------------------------------------|
|-----------------------------------------------------------------------|
|-----------------------------------------------------------------------|
|-8--6-&-9--5--6--5--6--5--6--5--6--8--6-&-9--6--5--6--5--6--5--6--5--|
|------------5--6--5--6--5--6--5--6-------------6--5--6--5--6--5--6--5--|
|-6--4-&-7--------------------------6--4-&-7--------------------------|
. . . . . . . . . . . . . . . .
both guitars
|------------|
|------------|
|------------|
|-5--3-&-6--|
|------------|
|-3--1-&-4--|




Psychotic Precision tab - Cannibal Corpse akoru
Psychotic Precision tab - Cannibal Corpse notaları,
Psychotic Precision tab - Cannibal Corpse tablar bas tablar akord akor oku



iletisim  Reklam  Gizlilik sözlesmesi
Diger sitelerimize baktiniz mi ? Radyo Dinle - milli piyango sonuclari - 2017 yeni yil mesajlari - Güzel sözler Sohbet 2003- 2016 Canim.net Her hakki saklidir.