Güzel sözler | Fıkra | Hikaye | Şiir - Şair| Şarkı sözleri | Türküler | Sohbet odaları | Rüya | Sağlık | Biyografi | islam | Güzeller | Paylaş


Canim.net
Akorlar
Akor Ekle
Şarkı sözleri
Yabancı şarkı sözleri
Çeviriler
Türkü
A  B  C  Ç  D  E  F  G  Ğ  H  I  İ  J  K  L  M  N  O  Ö  P  R  S  Ş  T  U  Ü  V  Y  Z 



Psychopathologist tab - Carcass



Tuning : Standard B

|--------------------------------------------|Intro:Guitar 1
|--------------------------------------------|
|--------------------------------------------|
|--------------------------------------------|
|--------------------------------------------|
|-333333-55-66-55-2222-333333-55-66-55-22-11-|
...... .. .. .. .... ...... .. .. .. .. ..

|--------------------------------------------|Intro:Guitar 2
|--------------------------------------------|
|--------------------------------------------|
|--------------------------------------------|
|-5--------------------5--------------3---2--|
|-3--------------------3--------------1---0--|


|--------------------------------------------|Riff 1 - Both Guitars
|--------------------------------------------|
|--------------------------------------------|
|--------------------------------------------|
|--------------------------------------------|
|-333333-55-66-55-2222-333333-55-66-55-22-11-|
...... .. .. .. .... ...... .. .. .. .. ..

|-------------| Riff 2
|-------------|
|-------------|
|-5--5-7-8--4-|
|-5--5-7-8--4-|
|-3--3-5-6--2-|


|---|Finish riff
|---|
|---|
|---|
|-5-|
|-3-|




Psychopathologist tab - Carcass akoru
Psychopathologist tab - Carcass notaları,
Psychopathologist tab - Carcass tablar bas tablar akord akor oku



iletisim  Reklam  Gizlilik sözlesmesi
Diger sitelerimize baktiniz mi ? Radyo Dinle - milli piyango sonuclari - 2017 yeni yil mesajlari - Güzel sözler Sohbet 2003- 2016 Canim.net Her hakki saklidir.