Güzel sözler | Fıkra | Hikaye | Şiir - Şair| Şarkı sözleri | Türküler | Sohbet odaları | Rüya | Sağlık | Biyografi | islam | Güzeller | Paylaş


Canim.net
Akorlar
Akor Ekle
Şarkı sözleri
Yabancı şarkı sözleri
Çeviriler
Türkü
A  B  C  Ç  D  E  F  G  Ğ  H  I  İ  J  K  L  M  N  O  Ö  P  R  S  Ş  T  U  Ü  V  Y  Z 



Post Mortal Ejaculation tab - Cannibal Corpse



. - palm mute & - slide up to
- slide down to ~ - vibrato
h - hammer on b - Bend
p - pull off Suffixes for bend
t - tap f - full bend h - half bend
ph - pinched harmonic q - quarter bend t - tap bend
* - see comment ^ - Hold bend r release bend
x - Stuccatto ~ - vibrato bend
, - slight palm mute () - ghost note, sustained note
" - tremolo note <> - Trill

Tuning is D#

Intro (probobley slight improv used here with the 1s and 2s
play it as you wish)

|R x4| x20| x4|
|-------------|-------------|-------------------------|
|-------------|-------------|-------------------------|
|-------------|-------------|-------------------------|
|-------------|-------------|---------2---------------|
|-1-1-2-1-4---|-1-1-2-1-4---|-1-1-2-1-----1-1-2-1-4---|
|-------------|-------------|-------------------------|
| . . . . | . . . . | . . . . . . . . |
|L | | |
|-------------|-------------|-------------------------|
|-------------|-------------|-------------------------|
|-------------|-------------|-------------------------|
|-------------|-------------|-------------------------|
|-------------|-1-1-2-1-4---|-1-1-2-1-4---1-1-2-1-4---|
|-------------|-------------|-------------------------|
. . . . . . . . . . . .

Riff A x4
|R
|------------------------------------------|
|------------------------------------------|
|------------------------------------------|
|------------------------------------------|
|-1-1-2-1-4---1-1-2-1-4---1-1-2-1-4--6-3--|
|------------------------------------4-1--|
| . . . . . . . . . . . .
|L
|------------------------------------------|
|------------------------------------------|
|------------------------------------------|
|------------------------------------------|
|-1-1-2-1-4---1-1-2-1-4---1-1-2-1-4--5-3--|
|------------------------------------3-1--|
. . . . . . . . . . . .

Riff B x4
|--------------------------|
|--------------------------|
|--------------------------|
|-----------------4--------|
|-1-1-2-1-4----------6-5--|
|-------------3-3----4-3--|
. . . . . .

Riff C x8
|-----------------------------------------|
|-----------------------------------------|
|-----------------------------------------|
|-6---5---------------6---5---3---4---5---|
|---7---6---7---6-------7---6---5---6---7-|
|---------0---8---7-0---------------------|
. . . . . . . . . . .

Riff D x8
|----------------------------------------|
|----------------------------------------|
|----------------------------------------|
|----------------------------------------|
|---------------2h3p2--------------------|
|-00000000-3350-------44444444-1111-2222-|

Riff E x6
|------------------------------------|
|------------------------------------|
|------------------------------------|
|------------3-----------------------|
|-2222222222-1-----2222222222-3--3---|
|-0000000000-------0000000000-1--1---|
.......... .......... . .

Riff D x4

Slow part
|R x1| x2|
|---------------------------------|---------------------------------|
|---------------------------------|---------------------------------|
|---------------------------------|---------------------------------|
|---------------------------------|---------------------------------|
|-2--&3-----------2--&3-----------|-2--&3-----------2--&3-----------|
|-0-------2---1---0-------1--&4---|-0-------2---1---0-------1--&4---|
| | |
|L | |
|---------------------------------|---------------------------------|
|---------------------------------|---------------------------------|
|---------------------------------|---------------------------------|
|---------------------------------|---------------------------------|
|-2-ring-------------&3-----------|-2--&3-----------2--&3-----------|
|-0-----------------------1--&4---|-0-------2---1---0-------1--&4---|

Passage x1
|R
|-------------------------------------------------------------|
|-------------------------------------------------------------|
|-------------------------------------------------------------|
|-------------------------------------------------------------|
|-2---------------------------6-----------------------3-3-6---|
|-0---------------------------4-----------------------3-1-4---|
| |
|L |
|-------------------------------------------------------------|
|-------------------------------------------------------------|
|-------------------------------------------------------------|
|-------------------------------------------------------------|
|-----3333------------3333------------3333------------3-3-6---|
|-0000----222211110000----111144440000----222211110---3-1-4---|


Riff F x4
|----------------------------------|
|----------------------------------|
|----------------------------------|
|----------------------------------|
|-----3333------------3333---------|
|-0000----222211110000----11114444-|

Riff E x2

Riff G x4
|-------------------------------------------------|
|-------------------------------------------------|
|-------------------------------------------------|
|-------------------------------------------------|
|-------------------------------------------------|
|-4-4-5-4-7---4-4-5-4-7---2-2-3-2-5---1-1-2-1-4---|
. . . . . . . . . . . . . . . .

Outro
|R x3| x1| x3| x1| x3| x1| x3| x1| x8|
|--------|------|--------|------|--------|------|--------|------|-------|
|--------|------|--------|------|--------|------|--------|------|-------|
|--------|------|--------|------|--------|------|--------|------|-------|
|--------|------|--------|------|--------|------|--------|------|-------|
|-11214--|-5-3-|-11214--|-5-3-|-11214--|-6-3-|-11214--|-5-3-|-11214-|
|--------|-3-1-|--------|-3-1-|--------|-4-1-|--------|-3-1-|-------|
| .... .... .... .... ....
|L
|--------|------|--------|------|--------|------|--------|------|-------|
|--------|------|--------|------|--------|------|--------|------|-------|
|--------|------|--------|------|--------|------|--------|------|-------|
|--------|------|--------|------|--------|------|--------|------|-------|
|-11214--|-5-3-|-11214--|-6-3-|-11214--|-5-3-|-11214--|-5-3-|-11214-|
|--------|-3-1-|--------|-4-1-|--------|-3-1-|--------|-3-1-|-------|
| .... .... .... .... ....




Post Mortal Ejaculation tab - Cannibal Corpse akoru
Post Mortal Ejaculation tab - Cannibal Corpse notaları,
Post Mortal Ejaculation tab - Cannibal Corpse tablar bas tablar akord akor oku



iletisim  Reklam  Gizlilik sözlesmesi
Diger sitelerimize baktiniz mi ? Radyo Dinle - milli piyango sonuclari - 2017 yeni yil mesajlari - Güzel sözler Sohbet 2003- 2016 Canim.net Her hakki saklidir.