Güzel sözler | Fıkra | Hikaye | Şiir - Şair| Şarkı sözleri | Türküler | Sohbet odaları | Rüya | Sağlık | Biyografi | islam | Güzeller | Paylaş


Canim.net
Akorlar
Akor Ekle
Şarkı sözleri
Yabancı şarkı sözleri
Çeviriler
Türkü
A  B  C  Ç  D  E  F  G  Ğ  H  I  İ  J  K  L  M  N  O  Ö  P  R  S  Ş  T  U  Ü  V  Y  Z 



Phoenix Rising tab - Cathedral



Gtr I,GtrII
|--------------|-------------------|-------------|--------------|
|--------------|-------------------|-------------|--------------|
|--------------|-------------------|-------------|--------------|
|-4---9-8--9-|-7-7---------------|-4--9-8--811|-7-7------4---|
|-2---7-6--7-|-5-5---5h7-7-7-7-0-|-2--7-6--69-|-5-5--5h7-----|
|--------------|-------------------|-------------|------------5-|

Gtr.I
|--------------|-------------------|-------------|--------------|
|--------------|-------------------|-------------|--------------|
|--------------|-------------------|-------------|--------------|
|-4---9-8--9-|-7-7---------------|-4--9-8--811|-7-7------4---|
|-2---7-6--7-|-5-5---5h7-7-7-7-0-|-2--7-6--69-|-5-5--5h7-----|
|--------------|-------------------|-------------|------------5-|
|Gtr.II
|--------------|-------------------|-------------|--------------|
|--------------|-------------------|-------------|--------------|
|--------------|-------------------|-------------|------------6-|
|-4---9-8--9-|-7-7---------------|-4--9-8--811|-7-7------4---|
|-2---7-6--7-|-5-5---5h7-7-7-7-0-|-2--7-6--69-|-5-5--5h7-----|
|--------------|-------------------|-------------|--------------|


Gtr.I,II
|-------------|-------------|-------------|--------------|
|-------------|-------------|-------------|--------------|
|-------------|-------------|-------------|--------------|
|-------------|-------------|-------------|-----3--------|
|-0h2-2-2-2-2-|-0h2-2-2-2-2-|-0h2-2-2-2-2-|-0h2---2--2-2-|
|-------------|-------------|-------------|--------------|

|-------------|-------------|-------------|--------------|
|-------------|-------------|-------------|--------------|
|-------------|-------------|-------------|--------------|
|-------------|-------------|-------------|-----3--------|
|-0h2-2-2-2-2-|-0h2-2-2-2-2-|-0h2-2-2-2-2-|-0h2---2&-----|
|-------------|-------------|-------------|--------------|


Vocals Play 2x
|---------------|---------------|--------------|------------|
|---------------|---------------|--------------|------------|
|-4--------4----|-3--------3----|------5-----4-|------------|
|-----4-------4-|------3------3-|-2------------|-1----------|
|---------------|---------------|--------------|------------|
|---------------|---------------|--------------|----------3-|


Play 4x
|----------------------------|
|----------------------------|
|----------------------------|
|----------------------------|
|---3-----2--------3-----2---|
|-2---2-3---3-0--2---2-3---0-|


Gtr I,GtrII
|--------------|-------------------|-------------|--------------|
|--------------|-------------------|-------------|--------------|
|--------------|-------------------|-------------|--------------|
|-4---9-8--9-|-7-7---------------|-4--9-8--811|-7-7------4---|
|-2---7-6--7-|-5-5---5h7-7-7-7-0-|-2--7-6--69-|-5-5--5h7-----|
|--------------|-------------------|-------------|------------5-|

Gtr.I
|--------------|-------------------|-------------|--------------|
|--------------|-------------------|-------------|--------------|
|--------------|-------------------|-------------|--------------|
|-4---9-8--9-|-7-7---------------|-4--9-8--811|-7-7------4---|
|-2---7-6--7-|-5-5---5h7-7-7-7-0-|-2--7-6--69-|-5-5--5h7-----|
|--------------|-------------------|-------------|------------5-|
|Gtr.II
|--------------|-------------------|-------------|--------------|
|--------------|-------------------|-------------|--------------|
|--------------|-------------------|-------------|------------6-|
|-4---9-8--9-|-7-7---------------|-4--9-8--811|-7-7------4---|
|-2---7-6--7-|-5-5---5h7-7-7-7-0-|-2--7-6--69-|-5-5--5h7-----|
|--------------|-------------------|-------------|--------------|


Gtr.I,II
|-------------|-------------|-------------|--------------|
|-------------|-------------|-------------|--------------|
|-------------|-------------|-------------|--------------|
|-------------|-------------|-------------|-----3--------|
|-0h2-2-2-2-2-|-0h2-2-2-2-2-|-0h2-2-2-2-2-|-0h2---2--2-2-|
|-------------|-------------|-------------|--------------|

|-------------|-------------|-------------|--------------|
|-------------|-------------|-------------|--------------|
|-------------|-------------|-------------|--------------|
|-------------|-------------|-------------|-----3--------|
|-0h2-2-2-2-2-|-0h2-2-2-2-2-|-0h2-2-2-2-2-|-0h2---2&-----|
|-------------|-------------|-------------|--------------|


Vocals Play 2x
|---------------|---------------|--------------|-----------|
|---------------|---------------|--------------|-----------|
|-4--------4----|-3--------3----|------5-----4-|--------4-|
|-----4-------4-|------3------3-|-2------------|-1------5-|
|---------------|---------------|--------------|-----------|
|---------------|---------------|--------------|-----------|


Gtr.I,II Play 2x
|----------------------------|
|----------------------------|
|----------------------------|
|----------------------------|
|---3-----2--------3-----2---|
|-2---2-3---3-0--2---2-3---0-|

Gtr.I,II Play 2x
|----------------------------|
|----------------------------|
|----------------------------|
|----------------------------|
|---3-----2--------3-----2---|
|-2---2-3---3-0--2---2-3---0-|
|
|Gtr.III (Organ)
|---8-----7--------8-----7---|
|-7---7-8---8----7---7-8-----|
|-------------9------------9-|
|----------------------------|
|----------------------------|
|----------------------------|


Gtr I,GtrII
|--------------|-------------------|-------------|--------------|
|--------------|-------------------|-------------|--------------|
|--------------|-------------------|-------------|--------------|
|-4---9-8--9-|-7-7---------------|-4--9-8--811|-7-7------4---|
|-2---7-6--7-|-5-5---5h7-7-7-7-0-|-2--7-6--69-|-5-5--5h7-----|
|--------------|-------------------|-------------|------------5-|

Gtr.I
|--------------|-------------------|-------------|--------------|
|--------------|-------------------|-------------|--------------|
|--------------|-------------------|-------------|--------------|
|-4---9-8--9-|-7-7---------------|-4--9-8--811|-7-7------4---|
|-2---7-6--7-|-5-5---5h7-7-7-7-0-|-2--7-6--69-|-5-5--5h7-----|
|--------------|-------------------|-------------|------------5-|
|Gtr.II
|--------------|-------------------|-------------|--------------|
|--------------|-------------------|-------------|--------------|
|--------------|-------------------|-------------|------------6-|
|-4---9-8--9-|-7-7---------------|-4--9-8--811|-7-7------4---|
|-2---7-6--7-|-5-5---5h7-7-7-7-0-|-2--7-6--69-|-5-5--5h7-----|
|--------------|-------------------|-------------|--------------|


Gtr.I,II
|-------------|-------------|-------------|--------------|
|-------------|-------------|-------------|--------------|
|-------------|-------------|-------------|--------------|
|-------------|-------------|-------------|-----3--------|
|-0h2-2-2-2-2-|-0h2-2-2-2-2-|-0h2-2-2-2-2-|-0h2---2--2-2-|
|-------------|-------------|-------------|--------------|

|-------------|-------------|-------------|--------------|
|-------------|-------------|-------------|--------------|
|-------------|-------------|-------------|--------------|
|-------------|-------------|-------------|-----3--------|
|-0h2-2-2-2-2-|-0h2-2-2-2-2-|-0h2-2-2-2-2-|-0h2---2&-----|
|-------------|-------------|-------------|--------------|

Gtr.I
|--------------|---------------|
|--------------|---------------|
|----2-------2-|-0---2-------3-|
|--------3-----|---------1-----|
|-0------------|---------------|
|--------------|---------------|

Gtr.I
|--------------|---------------|
|--------------|---------------|
|----2-------2-|-0---2-------3-|
|--------3-----|---------1-----|
|-0------------|---------------|
|--------------|---------------|
|Gtr.II
|--------------|---------------|
|--------------|---------------|
|----6-------6-|-----6-------7-|
|--------7-----|-9-------5-----|
|-0------------|---------------|
|--------------|---------------|



|----------------|----------------|
|----------------|----------------|
|-7-7--9p7-------|-7-7--9p7-------|
|----------9-7-9-|----------9-7-9-|
|----------------|----------------|
|----------------|----------------|

|-------------------|-------------------|
|-------------------|-------------------|
|-9-9--11p9---------|-9-9--11p9---------|
|-----------11-9-11-|-----------11-9-11-|
|-------------------|-------------------|
|-------------------|-------------------|


|-------------------|-----------------------|
|-------------------|-----------------------|
|-8-8--10p8---------|-10-10--12p10----------|
|-----------10-8-10-|--------------12-10-12-|
|-------------------|-----------------------|
|-------------------|-----------------------|

|----------------|----------------|
|----------------|----------------|
|-7-7--9p7-------|-7-7--9p7-------|
|----------9-7-9-|----------9&----|
|----------------|----------------|
|----------------|----------------|


Lick Gtr.IV(gradually put the tremolo
bar down,descending the notes)
|----------------------------------------|
|-12h15p12h15p12h15p12h15p12h15p12h15p12-|
|----------------------------------------|
|----------------------------------------|
|----------------------------------------|
|----------------------------------------|

|--------------|----------|-------------|
|--------------|----------|-------------|
|-7h--------(8)|----------|-10h----(11)-|
|--------------|----------|-------------|
|--------------|----------|-------------|
|--------------|-4&-------|-------------|



Gtr I,GtrII (with licks above)
|--------------|-------------------|-------------|--------------|
|--------------|-------------------|-------------|--------------|
|--------------|-------------------|-------------|--------------|
|-4---9-8--9-|-7-7---------------|-4--9-8--811|-7-7------4---|
|-2---7-6--7-|-5-5---5h7-7-7-7-0-|-2--7-6--69-|-5-5--5h7-----|
|--------------|-------------------|-------------|------------5-|

Gtr.I
|--------------|-------------------|-------------|--------------|
|--------------|-------------------|-------------|--------------|
|--------------|-------------------|-------------|--------------|
|-4---9-8--9-|-7-7---------------|-4--9-8--811|-7-7------4---|
|-2---7-6--7-|-5-5---5h7-7-7-7-0-|-2--7-6--69-|-5-5--5h7-----|
|--------------|-------------------|-------------|------------5-|
|Gtr.II
|--------------|-------------------|-------------|--------------|
|--------------|-------------------|-------------|--------------|
|--------------|-------------------|-------------|------------6-|
|-4---9-8--9-|-7-7---------------|-4--9-8--811|-7-7------4---|
|-2---7-6--7-|-5-5---5h7-7-7-7-0-|-2--7-6--69-|-5-5--5h7-----|
|--------------|-------------------|-------------|--------------|



Lick Gtr.IV (gradually put the tremolo descend this note
bar up and down,oscilating the notes) all the way
|----------------------------------------|-------|
|-12h15p12h15p12h15p12h15p12h15p12h15p12-|-0-----|
|----------------------------------------|-------|
|----------------------------------------|-------|
|----------------------------------------|-------|
|----------------------------------------|-------|


Gtr.I,II (with licks above)
|-------------|-------------|-------------|--------------|
|-------------|-------------|-------------|--------------|
|-------------|-------------|-------------|--------------|
|-------------|-------------|-------------|-----3--------|
|-0h2-2-2-2-2-|-0h2-2-2-2-2-|-0h2-2-2-2-2-|-0h2---2--2-2-|
|-------------|-------------|-------------|--------------|

|-------------|-------------|-------------|--------------|
|-------------|-------------|-------------|--------------|
|-------------|-------------|-------------|--------------|
|-------------|-------------|-------------|-----3--------|
|-0h2-2-2-2-2-|-0h2-2-2-2-2-|-0h2-2-2-2-2-|-0h2---2&-----|
|-------------|-------------|-------------|--------------|


Vocals
Gtr.I,II
|---------------|---------------|--------------|-----------|
|---------------|---------------|--------------|--------8-|
|-4--------4----|-3--------3----|------5-----4-|-----------|
|-----4-------4-|------3------3-|-2------------|-1---------|
|---------------|---------------|--------------|-----------|
|---------------|---------------|--------------|-----------|

Gtr.I
|---------------|---------------|--------------|-----------|
|---------------|---------------|--------------|--------8-|
|-4--------4----|-3--------3----|------5-----4-|-----------|
|-----4-------4-|------3------3-|-2------------|-1---------|
|---------------|---------------|--------------|-----------|
|---------------|---------------|--------------|-----------|
|Gtr.II
|---------------|---------------|--------------|-----------|
|---------------|---------------|--------------|-------12-|
|-4--------4----|-3--------3----|------5-----4-|-----------|
|-----4-------4-|------3------3-|-2------------|-1---------|
|---------------|---------------|--------------|-----------|
|---------------|---------------|--------------|-----------|


Gtr.I,II Play 2x
|----------------------------|
|----------------------------|
|----------------------------|
|----------------------------|
|---3-----2--------3-----2---|
|-2---2-3---3-0--2---2-3---0-|




Phoenix Rising tab - Cathedral akoru
Phoenix Rising tab - Cathedral notaları,
Phoenix Rising tab - Cathedral tablar bas tablar akord akor oku



iletisim  Reklam  Gizlilik sözlesmesi
Diger sitelerimize baktiniz mi ? Radyo Dinle - milli piyango sonuclari - 2017 yeni yil mesajlari - Güzel sözler Sohbet 2003- 2016 Canim.net Her hakki saklidir.