Güzel sözler | Fıkra | Hikaye | Şiir - Şair| Şarkı sözleri | Türküler | Sohbet odaları | Rüya | Sağlık | Biyografi | islam | Güzeller | Paylaş


Canim.net
Akorlar
Akor Ekle
Şarkı sözleri
Yabancı şarkı sözleri
Çeviriler
Türkü
A  B  C  Ç  D  E  F  G  Ğ  H  I  İ  J  K  L  M  N  O  Ö  P  R  S  Ş  T  U  Ü  V  Y  Z 



Perdeler solo - Şebnem Ferah



E-----------------|
B-----------------|
G-----------------| *3 kez*
D-----------------|
A-0h3h5--0h3h5----|
E-----------------|


E-------------------------------------------------------|
B-------------------------------------------------------|
G-------------------------------------------------------|
D-------------------------------------------------------|
A-0h5h7--0h7h8--0h8h10--0h10h12--10~p8----10-8^---------|
E--------------------------------------10---------------|


E-------------------------------------------------------|
B-10p8---------------13~---13--13b(15)-13---------------|
G------10p7--12b(14)----14--14-----------10-12-10-12-14-|
D-------------------------------------------------------|
A-------------------------------------------------------|
E-------------------------------------------------------|


E--------12---------13---------15----------15b(17)-15---|
B-------------------------------------------------------|
G-15-14-15---15-14-15---15-14-15---15-14-15-------------|
D-------------------------------------------------------|
A-------------------------------------------------------|
E-------------------------------------------------------|


E-13-12----------------------------------|
B-------15-13----------------------------|
G-------------15-14-12-10-12b-10-12~-10--|
D----------------------------------------|
A----------------------------------------|
E----------------------------------------|


E-------------------------------------------------------|
B-------------------------------------------------------|
G--10-10----------------10-10---------------------------|
D--12-12--12*12*12*12*--12-12---------------------------|
A-------------------------------------------------------|
E-------------------------------------------------------|

*h=hammer on*
*b=bend*
*p=pull off*
*=adını bilmiyorum, sadece avuç içinizle teli
biraz susturun..




Perdeler solo - Şebnem Ferah akoru
Perdeler solo - Şebnem Ferah notaları,
Perdeler solo - Şebnem Ferah tablar bas tablar akord akor oku



iletisim  Reklam  Gizlilik sözlesmesi
Diger sitelerimize baktiniz mi ? Radyo Dinle - milli piyango sonuclari - 2017 yeni yil mesajlari - Güzel sözler Sohbet 2003- 2016 Canim.net Her hakki saklidir.