Güzel sözler | Fıkra | Hikaye | Şiir - Şair| Şarkı sözleri | Türküler | Sohbet odaları | Rüya | Sağlık | Biyografi | islam | Güzeller | Paylaş


Canim.net
Akorlar
Akor Ekle
Şarkı sözleri
Yabancı şarkı sözleri
Çeviriler
Türkü
A  B  C  Ç  D  E  F  G  Ğ  H  I  İ  J  K  L  M  N  O  Ö  P  R  S  Ş  T  U  Ü  V  Y  Z 



Pembe Elbise - Dırec-t



GİRİŞ

O gecenin ardı,yanımda yoksun sen
Ben yalnız ve sen onla,ağladım aşkım yok
Bak ne kaldı senden,bende,kalbimde bir korku,bir tortu
Ağladım aşkım yok


A Gm Cm A# A
-----5----5---5-5--5-5-----------3-3------8--8---6-6----5-5--l-------------
-----6----6---6-6--6-6----3---3--3-3------8--8---6-6----5-5--l-------------
-----7----7---7-7--7-7----3---3--3-3------9--9---7-7----6-6--l-------------
-----7----7---7-7--7-7--5-5-5-5--5-5-----10-10---8-8----7-7--l-------------
--5-----5-----5-5--5-5--5---5----5-5-----10-10---8-8----7-7--l-------------
------------------------3---3----3-3------8--8---6-6----5-5--l-------------
ağladım yağmurda bu sokakta elimde.... şarap şarkı söylesem karanlıkta ağlarken

beni al beni sar bu fırtınada........yalnız adam yakında o adam bak tam arkanda
.

.
A A# A .
-5-5--x-6----5-------------------------------------------------------------
-5-5--x-6----5-------------------------------------------------------------
-6-6--x-7----6-------------------------------------------------------------
-7-7--x-8----7-------------------------------------------------------------
-7-7--x-8----7-------------------------------------------------------------
-5-5--x-6----5-------------------------------------------------------------
ooo yeeeee
ooo yeeee


nakarat

Em F# G A# A
----------2-------3-x-6----5------------------------------------------------
-0--------2-------3-x-6----5------------------------------------------------
-0--------3-------4-x-7----6------------------------------------------------
-2--------4-------5-x-8----7------------------------------------------------
-2--------4-------5-x-8----7------------------------------------------------
-0--------2-------3-x-6----5------------------------------------------------
dedileeer hayat pembe bir elbise
dediler hayat güzel sevincee

Sözler:

o gecenin ardı yanımda yoksun sen
ben yalnız ve sen onla
ağladım aşkım yok
bak ne kaldı
senden bende
kalbimde
bir korku
ve bir tortu
ağladım aşkım yok

yalnızım yağmurda bu sokakta
elimde bir pembe şarap
şarkı söylesem
karanlıkta ağlarken

beni al beni sar o fırtınada
ben kırılan bozulan o yalnız adam
yakında o adam
bak tam arkanda

duymadın sesimi ben ağlarken
görmedin gece gündüz beklerken
beni al desem
içine değsem

keşke tek olmasaydın
başkasıyla yatsaydım
beni aldattığında
gözlerim dolmasaydı.

dediler hayat pembe bir elbise
dediler
hayat güzel sevince






Pembe Elbise - Dırec-t akoru
Pembe Elbise - Dırec-t notaları,
Pembe Elbise - Dırec-t tablar bas tablar akord akor oku



iletisim  Reklam  Gizlilik sözlesmesi
Diger sitelerimize baktiniz mi ? Radyo Dinle - milli piyango sonuclari - 2017 yeni yil mesajlari - Güzel sözler Sohbet 2003- 2016 Canim.net Her hakki saklidir.