Güzel sözler | Fıkra | Hikaye | Şiir - Şair| Şarkı sözleri | Türküler | Sohbet odaları | Rüya | Sağlık | Biyografi | islam | Güzeller | Paylaş


Canim.net
Akorlar
Akor Ekle
Şarkı sözleri
Yabancı şarkı sözleri
Çeviriler
Türkü
A  B  C  Ç  D  E  F  G  Ğ  H  I  İ  J  K  L  M  N  O  Ö  P  R  S  Ş  T  U  Ü  V  Y  Z 



Parisienne WalkwaysTab - Gary Moore



Distortion ys da Overdrive Electro Guitar E Tuning olacak
E--12--10----------------------12--10-------------------------------------
B----------13--12--10-----------------------------------------------------
G----------------------12--10---------------------------------------------
D-------------------------------------------------------------------------
A-------------------------------------------------------------------------
E-------------------------------------------------------------------------

E--10--8--7----------------10--8------------------------------------------
B------------10--8--------------------------------------------------------
G-------------------10--9-------------------------------------------------
D-------------------------------------------------------------------------
A-------------------------------------------------------------------------
E-------------------------------------------------------------------------

E--8--7-------------------8--7--------------------------------------------
B--------10--8------------------------------------------------------------
G---------------10--9--7--------------------------------------------------
D-------------------------------------------------------------------------
A-------------------------------------------------------------------------
E-------------------------------------------------------------------------

E--7----------------------------------------------------------------------
B-----10--9--7------------------------------------------------------------
G---------------10--9--7--------------------------------------------------
D-------------------------10----------------------------------------------
A-------------------------------------------------------------------------
E-------------------------------------------------------------------------




Parisienne WalkwaysTab - Gary Moore akoru
Parisienne WalkwaysTab - Gary Moore notaları,
Parisienne WalkwaysTab - Gary Moore tablar bas tablar akord akor oku



iletisim  Reklam  Gizlilik sözlesmesi
Diger sitelerimize baktiniz mi ? Radyo Dinle - milli piyango sonuclari - 2017 yeni yil mesajlari - Güzel sözler Sohbet 2003- 2016 Canim.net Her hakki saklidir.