Güzel sözler | Fıkra | Hikaye | Şiir - Şair| Şarkı sözleri | Türküler | Sohbet odaları | Rüya | Sağlık | Biyografi | islam | Güzeller | Paylaş


Canim.net
Akorlar
Akor Ekle
Şarkı sözleri
Yabancı şarkı sözleri
Çeviriler
Türkü
A  B  C  Ç  D  E  F  G  Ğ  H  I  İ  J  K  L  M  N  O  Ö  P  R  S  Ş  T  U  Ü  V  Y  Z 



Pardon Me tab - Incubus



Intro: (played with volume, phaser, and delay)

e|----------0---------0-|
B|----------------------|
G|--4-4-4-4---4-4-4-4---|
D|--2-2-2-2---2-2-2-2---|
A|--4-0-4-0---4-0-4-0---|
E|--0-0-0-0---0-0-0-0---|

With Distortion:

e|--4--0--4--0-0--4--0--4--7-7-5--|
B|--4--0--4--0-0--4--0--4--7-7-5--|
G|--6--2--6--2-0--6--2--6--9-7-5--|
D|--6--2--6--2-2--6--2--6--9-9-7--|
A|--4--0--4--0-2--4--0--4--7-9-7--|
E|--4--0--4--0-0--4--0--4--7-7-5--|

Verse: (volume, phaser, and delay)

e|--------0-0-0---0-0-0----|
B|--7-7---4-4-4-4-4-4-4-4--|
G|--4-4-6-------m-------m--|
D|--6-6-5-------m-------m--|
A|----7-6-------2-------2--|
E|-------------------------|

Pre-chorus: (distortion)

e|--00000--|
B|--00000--|
G|--22222--|
D|--22222--|
A|--00000--|
E|--00000--|



Chorus: (distortion)

e|--4--2--0------------- -4--0--2--4--7-7-5-|
B|--4--2--0------------- -4--0--2--4--7-7-5-|
G|--6--4--2-------------x3 -6--2--4--6--9-7-5-|
D|--6--4--2--4-2-2-4-2-2 -6--2--4--6--9-9-7-|
A|--4--2--0--4-2-2-4-2-2 -4--0--2--4--7-9-7-|
E|--4--2--0--2-0-0-2-0-0 -4--0--2--4--7-7-5-|

(Verse)

(Pre-chorus & Chorus)

e|----------0--|
B|-------------|
G|--4-4-4-4----|x4
D|--2-2-2-2----|
A|--4-0-4-0----|
E|--0-0-0-0----|

(Chorus)

Outro:

e|--4-2-0------------ --4-0-2--4-7-7-5--4-7-|
B|--4-2-0------------ --4-0-2--4-7-7-5--4-7-|
G|--6-4-2------------x2 --6-2-4--6-9-7-5--6-9-|
D|--6-4-2-4-2-2-4-2-2 --6-2-4--6-9-9-7--6-9-|
A|--4-2-0-4-2-2-4-2-2 --4-0-2--4-7-9-7--4-7-|
E|--4-2-0-2-0-0-2-0-0 --4-0-2--4-7-7-5--4-7-|

End on:

e|--7--|
B|--7--|
G|--7--|
D|--9--|
A|--9--|
E|--7--|




Pardon Me tab - Incubus akoru
Pardon Me tab - Incubus notaları,
Pardon Me tab - Incubus tablar bas tablar akord akor oku



iletisim  Reklam  Gizlilik sözlesmesi
Diger sitelerimize baktiniz mi ? Radyo Dinle - milli piyango sonuclari - 2017 yeni yil mesajlari - Güzel sözler Sohbet 2003- 2016 Canim.net Her hakki saklidir.