Güzel sözler | Fıkra | Hikaye | Şiir - Şair| Şarkı sözleri | Türküler | Sohbet odaları | Rüya | Sağlık | Biyografi | islam | Güzeller | Paylaş


Canim.net
Akorlar
Akor Ekle
Şarkı sözleri
Yabancı şarkı sözleri
Çeviriler
Türkü
A  B  C  Ç  D  E  F  G  Ğ  H  I  İ  J  K  L  M  N  O  Ö  P  R  S  Ş  T  U  Ü  V  Y  Z 



Paramparça Tab - Teoman



E--------------------------------|-------------------------------|------
A--------------------------------|-------------------------------|------
F--------------------------------|-------------------------------|------
C---4-----4~~~-----4-----4&6~~~--|--4-----4~~~-----4-----4&6~~~--|------
G------3--------------3----------|-----3--------------3----------|------
D--------------------------------|-------------------------------|------

E---------------------------------------------|-------
A---------------------------------------------|-------
F---------------------------------------------|-------
C---4-----4&6~~~--4-----4&6~~~--4-----4&6~~~--|-------
G------3-------------3-------------3----------|-------
D---------------------------------------------|--3&15 A AH AH
E---||----------------------------------------------||
A---||----------------------------------------------||
F---||*--------------------------------------------*||
C---||*-----6--5-----4~~~--------6--4--------4~~~--*||
G---||---3-----------------3--3---------------------||
D---||------------2--------------------2--2---------||
B A 2 Times
E---||---------------|----------------|
A---||---------------|----------------|
F---||*--------------|----------------|
C---||*--3--3--3--3--|--3&8--8--8--8--|
G---||---1--1--1--1--|--1-6--6--6--6--|
D---||---------------|----------------|
B 2 Times C
E---------------|--||---------------|---------------------||
A---------------|--||---------------|---------------------||
F---------------|--||*--------------|--------------------*||
C---------------|--||*--5--5--5--5--|--5&10--10--10--10--*||
G---------------|--||---3--3--3--3--|--3-8---8---8---8----||
D---------------|--||---------------|---------------------||

Bass and Keyboards
D AH on 3rd Time 3x
E---||---------------------------------------||----------------|--------
A---||---------------------------------------||----------------|--------
F---||*-------------------------------------*||----------------|--------
C---||*--4-----4~~~--------------4-----4&6--*||--4-----4&6~~~--|--------
G---||------3-----------------------3--------||-----3----------|--------
D---||---------------------------------------||----------------|--------
End D A 2 Times
E----------------------------------|--------------|
A----------------------------------|--------------|
F----------------------------------|--------------|
C---5--5--5--5--5------------------|--------------|
G---3--3--3--3--3------------------|--------------|
D------------------31--3---------|--------------|
B 2 Times A 2 Times B 2 Times C 2
E------------------|--------------|----|
A------------------|--------------|----|
F------------------|--------------|----|
C------------------|--------------|--5|
G------------------|--------------|--3-|
D------------------|--------------|----|

D AH on 1st Time A 2 Times

B 2 Times

A 4 Times
E|--------||
A|--------||
F|--0--0--||
C|--2--2--||
G|--3--3--||
D|--------||




Paramparça Tab - Teoman akoru
Paramparça Tab - Teoman notaları,
Paramparça Tab - Teoman tablar bas tablar akord akor oku



iletisim  Reklam  Gizlilik sözlesmesi
Diger sitelerimize baktiniz mi ? Radyo Dinle - milli piyango sonuclari - 2017 yeni yil mesajlari - Güzel sözler Sohbet 2003- 2016 Canim.net Her hakki saklidir.