Güzel sözler | Fıkra | Hikaye | Şiir - Şair| Şarkı sözleri | Türküler | Sohbet odaları | Rüya | Sağlık | Biyografi | islam | Güzeller | Paylaş


Canim.net
Akorlar
Akor Ekle
Şarkı sözleri
Yabancı şarkı sözleri
Çeviriler
Türkü
A  B  C  Ç  D  E  F  G  Ğ  H  I  İ  J  K  L  M  N  O  Ö  P  R  S  Ş  T  U  Ü  V  Y  Z 



Papatya Tab - Teoman



Intro:
e|-----1-------1-------1--------|
b|---1---1---1---1---1---1------|
g|------------------------------|
d|-3-------4-------3------------|
a|-------------------------3~~--|
e|------------------------------|

Riff 1:
e|--------------------|
b|--------------------|
g|--------------------|
d|-6s8-8-8-8---6-8----| Intro: tekrar riff1 3 defa ve
a|-6s8-8-8-8---6-8----| riff2 1 defa
d|-6s8-8-8-8---6-8----|

Riff 2:

e|--------------------|
b|--------------------|
g|--------------------|
d|-1s3-3-3-3---1-3----|
a|-1s3-3-3-3---1-3----|
d|-1s3-3-3-3---1-3----|


Bbm
Bizi taniyan herkes bilir,
Ab
senle ben eskiden beri
Gb
Hiç derdimiz olmadan
Fm
büyümüstük yanyana
Bbm
Hani çok sevdigin o filmi,
Ab
gördükten sonra
Gb
Kisacik kestin saçlarinin,
Fm
içtin ilk sigarani

Nakarat:


Gitar1: Bbm
Gitar2: Riff1
Oh papatya

Gitar1: Eb
Gitar2: Riff1
Yüzümün haline bak

Gitar1: Bbm
Gitar2: Riff1
Seninle kim kalacak

Gitar1: Fm
Gitar2: Riff2
Isiklar kapaninca,

Gitar1: Db Ab Bbm
Gitar2: Db Ab Bbm
benden çok uzakta




Papatya Tab - Teoman akoru
Papatya Tab - Teoman notaları,
Papatya Tab - Teoman tablar bas tablar akord akor oku



iletisim  Reklam  Gizlilik sözlesmesi
Diger sitelerimize baktiniz mi ? Radyo Dinle - milli piyango sonuclari - 2017 yeni yil mesajlari - Güzel sözler Sohbet 2003- 2016 Canim.net Her hakki saklidir.