Güzel sözler | Fıkra | Hikaye | Şiir - Şair| Şarkı sözleri | Türküler | Sohbet odaları | Rüya | Sağlık | Biyografi | islam | Güzeller | Paylaş


Canim.net
Akorlar
Akor Ekle
Şarkı sözleri
Yabancı şarkı sözleri
Çeviriler
Türkü
A  B  C  Ç  D  E  F  G  Ğ  H  I  İ  J  K  L  M  N  O  Ö  P  R  S  Ş  T  U  Ü  V  Y  Z 



Pamukkale Tab - Haluk Levent



Am F
|---------------------|-----|---------------------|-----|
|-----1-(1)----0-(0)--|-----|-----1-(1)----0-(0)--|-----|
|----2--------2-------|-----|---------------------|-----|
|---2--------2--------|--%--|----3--------3-------|--%--|
|--0--------0---------|-----|---3--------3--------|-----|
|---------------------|-----|--1--------1---------|-----|

Kosarak geldim teninin ...

Rhy.Fig.1 Rhy.Fig.1 sonu

Am G F
|-------------0----3------1--------|--------------------|
|--------------1----3------1-------|--------------------|
|---------------2----0-(0)--2-(2)--|--------------------|
|--------2-(2)---2-----------------|----x7-Rhy.Fig.1----|
|--0-(0)---------------------------|--------------------|
|----------------------------------|--------------------|

Kül düsmüs karina ...

Chorus:

Rhy.Fig.2 Rhy.Fig.2 sonu

F G G
|-------------1--1-----------3--3--|------|--3-(3)---3--|
|--------------1--------------3----|------|--3-(3)---3--|
|---------------2--------------0---|------|--0-(0)---0--|
|-------3-(3)-----------0-(0)------|--x2--|--0-(0)-&-0--|
|----------------------------------|------|--2-(2)---2--|
|--1-(1)-----------3-(3)-----------|------|--3-(3)---3--|


F G
|-------------1--1-----------3--3--|------|-------------|
|--------------1--------------3----|------|-------------|
|---------------2--------------0---|------|-------------|
|-------3-(3)-----------0-(0)------|--x1--|--Rhy.Fig.2--|
|----------------------------------|------|-------------|
|--1-(1)-----------3-(3)-----------|------|-------------|

Solo:

|--------------------------------------------------------
|-1-3-5h3-5-(5)-8h6-6h5-5h3-3h1-0-1h0-----s&5-(5)-8h6-6h5
|------------------------------------2-(2)---------------
|--------------------------------------------------------
|--------------------------------------------------------
|--------------------------------------------------------


|--------------------8h7-8h5-8h7-8h5-8h7-8h5-(5)&12-(12)-
|-5h3-3h1-0-1h0------------------------------------------
|--------------2-(2)-------------------------------------
|--------------------------------------------------------
|--------------------------------------------------------
|--------------------------------------------------------


|-15h13-13h12-12h10-10h8-7-8h7-5-(5)-s&12-(12)-15h13-13h-
|--------------------------------------------------------
|--------------------------------------------------------
|--------------------------------------------------------
|--------------------------------------------------------
|--------------------------------------------------------


|-12-12h10-10h8-7-8h7-5-(5)-|---8h7-5-(5)----------------
|---------------------------|--8-------------------------
|---------------------------|----------------------------
|---------------------------|----------------------------
|---------------------------|----------------------------
|---------------------------|----------------------------




Pamukkale Tab - Haluk Levent akoru
Pamukkale Tab - Haluk Levent notaları,
Pamukkale Tab - Haluk Levent tablar bas tablar akord akor oku



iletisim  Reklam  Gizlilik sözlesmesi
Diger sitelerimize baktiniz mi ? Radyo Dinle - milli piyango sonuclari - 2017 yeni yil mesajlari - Güzel sözler Sohbet 2003- 2016 Canim.net Her hakki saklidir.