Güzel sözler | Fıkra | Hikaye | Şiir - Şair| Şarkı sözleri | Türküler | Sohbet odaları | Rüya | Sağlık | Biyografi | islam | Güzeller | Paylaş


Canim.net
Akorlar
Akor Ekle
Şarkı sözleri
Yabancı şarkı sözleri
Çeviriler
Türkü
A  B  C  Ç  D  E  F  G  Ğ  H  I  İ  J  K  L  M  N  O  Ö  P  R  S  Ş  T  U  Ü  V  Y  Z 



Palavratab - Athena



Solo (Dm - Gm - A)

---------------------------------------------------------
---------------------------------------------------------
---------------------------------------------------------
-------5-7-8-7-5-7-----------------5-7-8-7-5-7-----------
-5-7-8-------------8-7--Sus--5-7-8-------------8-7-------
---------------------------------------------------------

---------------------------------------------------------
-----------------5-6-5-----------------------------------
-------------6-7-------7-6-------------------------------
-------5-7-8---------------8-7*-5--7-8-7h8p7--5-----------
-5-7-8---------------------------------------8-8-7--5-4-5*-
---------------------------------------------------------

---------------------------------------------------------
--------------------------------------------------5-6-5--
-----------------7-6-7---6--------------------6-7--------
-7-6-7---6-------------8---8-7-5--5-7-8-5-7-8------------
-------8---8-7-5-----------------------------------------
---------------------------------------------------------

---------------------------------------------------------
---------------------------------------------------------
-7-6-----------------------------------------------------
-----8-7--5--7-8-7h8p7--5---------------------------------
----------------------8-8-7--5-4-5------------------------
---------------------------------------------------------

2. Solo

--------------------------------------------------------
----------10-9-h10 p9-h10--11-10-8----------------------
---7--h10--------------------------10-9-h10-p9-7-6------
-7-------------------------------------------------8----
--------------------------------------------------------
--------------------------------------------------------

-----------------------------------10-9-h10-p9----------
----------10-9-h10 p9-h10--11-10-8-------------11-10-8--
---7--h10-----------------------------------------------
-7------------------------------------------------------
--------------------------------------------------------
--------------------------------------------------------

---------10-9-h10-p9-h10-p9--------------------------------
-11-10-8--------------------11-10-8------------------------
------------------------------------10-9-7-6-7-9-6-7--7--7-
-----------------------------------------------------7--7--
------------------------------------------------------------
------------------------------------------------------------




Palavratab - Athena akoru
Palavratab - Athena notaları,
Palavratab - Athena tablar bas tablar akord akor oku



iletisim  Reklam  Gizlilik sözlesmesi
Diger sitelerimize baktiniz mi ? Radyo Dinle - milli piyango sonuclari - 2017 yeni yil mesajlari - Güzel sözler Sohbet 2003- 2016 Canim.net Her hakki saklidir.