Güzel sözler | Fıkra | Hikaye | Şiir - Şair| Şarkı sözleri | Türküler | Sohbet odaları | Rüya | Sağlık | Biyografi | islam | Güzeller | Paylaş


Canim.net
Akorlar
Akor Ekle
Şarkı sözleri
Yabancı şarkı sözleri
Çeviriler
Türkü
A  B  C  Ç  D  E  F  G  Ğ  H  I  İ  J  K  L  M  N  O  Ö  P  R  S  Ş  T  U  Ü  V  Y  Z 



Özgürlük İçimizde - Tarkan



Piano Intro:
F#m F#m+5 F#m E D F#m F#m+5

Tune: Eb...

F#m F#m+5
Eb|--------------------------------------|
Bb|---2-----2------2------3--------------|
Gb|----2--2---2--2---2--2---2---2------*-| 4 times
Db|-----4------4------4-------4--------*-|
Ab|--------------------------------------|
Eb|--------------------------------------|
E F#m+5 F#m
Eb|---0-------0-------0--------------------------------2--|
Bb|-----0---0---0---0---0---0---3-----3--2------2------2--|
Gb|-------1-------1-------1-------2-------2--2---2--2--2--|
Db|---------------------------------4------4------4----4--|
Ab|----------------------------------------------------4--|
Eb|----------------------------------------------------2--|


F#m
Bir elimde düşlerim diğerinde ümitlerim
E D F#m
Aradım durdum senelerce; Oooooo!
F#m
Yankılandı uzaklarda sesi geldi ufuklardan
E D F#m
Yinede rastlayamadım izine Ooooo!
Çaresiz...


F#m Bm F#m )
Rüzgara yıldızlara sordum )
E Bm ) Nakarat
Yorulma boşuna aldanma )
D E F#m )
O zaten hep seninle dediler... )


F#m
Ne yasaklar ne tuzaklar yılmadım ne yollar aştım
E D F#m
Bulamadım rastlayamadım izine Oooooo!
Çaresiz...

F#m Bm F#m
Rüzgara yıldızlara sordum
E Bm
Yorulma boşuna aldanma
D E F#m
O zaten hep seninle dediler
F#m Bm F#m
Kuşlara yağmurlara sordum
E Bm
Özgürlük içinde kalbinde
D E F#m
Uzaklarda arama dediler

Bir hazineki; o en kıymetli, o en tatlı
Ama kimde anahtarı?
Nerede saklı?...




Özgürlük İçimizde - Tarkan akoru
Özgürlük İçimizde - Tarkan notaları,
Özgürlük İçimizde - Tarkan tablar bas tablar akord akor oku



iletisim  Reklam  Gizlilik sözlesmesi
Diger sitelerimize baktiniz mi ? Radyo Dinle - milli piyango sonuclari - 2017 yeni yil mesajlari - Güzel sözler Sohbet 2003- 2016 Canim.net Her hakki saklidir.