Güzel sözler | Fıkra | Hikaye | Şiir - Şair| Şarkı sözleri | Türküler | Sohbet odaları | Rüya | Sağlık | Biyografi | islam | Güzeller | Paylaş


Canim.net
Akorlar
Akor Ekle
Şarkı sözleri
Yabancı şarkı sözleri
Çeviriler
Türkü
A  B  C  Ç  D  E  F  G  Ğ  H  I  İ  J  K  L  M  N  O  Ö  P  R  S  Ş  T  U  Ü  V  Y  Z 



Ölümler Tab - Düş Sokağı Sakinleri



GİRİŞ
G------------------0-I----------------------
D-----2-------2------I-----2-------2-----0-- x 4
A---2---2---2---2----I---2---2---2---2------
E-0-------0------0---I-0-------0------0-----

solo
B-------------------I--------------------I------------------
G-------------------I--------------------I----------0h2-2s4~
D-0-0h2~~-5p3-2h3-2~I-0-0h2~~-5p3-2h3-2~-I-0-0h2~5p3--------
A-------------------I--------------------I------------------




* Ölümler çıplak gelir * Geceyi indirir
* Yayılır nefesin çiçeklere * Ay ışılldar
G------------------0---------------------------------------0
D-----2-------2-----------2-------2-----0-----2--------2----
A---2---2---2---2-------2---2---2---2-------2---2---2----2--
E-0-------0------0----0-------0------0-----0------0-------0-

yavaşça gözlerine * Benden geçmek kolay değil..
soğuk bedeninde * Günah bana hiç el değil..
B------------------1-I-------------------I------------------
G-----2-------2------I-----2-------2----0I-----------------0
D---2---2---2---2----I---2---2---2---2---I----2--------2----
A-0-------0------0---I-0-------0------0--I--2---2---2----2--
E--------------------I-------------------I0-------0-------0-

* Feryat eder ateş sözleri-
* Feryat eder dilim hüzünle-
G---------------------0---------------------------------
D-----3------------------0---0------------3----------3--
A---3---3---3-------2------2------------3---3---3------3
E-1-------1-------3-----------------1---------1---------

me..
re..
G-------------------0---
D-----2--------2--------
A---2---2---2----2------
E-0-------0-------0-----


C Em
Vedalar doğru değil
Am
Sevgiler yalan değil
Am Em
Koşarım ben sensizliğe
C G
Bu son bakışta gitmek...
Em
Hiç mümkün değil.

Em
*Görünür bana senden kalan
Em Am
*Bilirim ki vardır şarkımı duyan
Am Em
*Boşunadır yakarış çizilene
F Dm G F Em
*Geçer zaman aşk sevince

Em
*Ölümler çıplak gelir
Em Am
*Geceyi indirir yavaşça gözlerine
Am Em
*Senden çıkmak kolay değil
F Dm G F Em
*Beterdir hayat acılar çekenlere


C Em
Vedalar doğru değil
Am
Sevgiler yalan değil
Am Em
Koşarım ben sensizliğe
C G
Ağlarım yağmur düşürür seni...
Am Em
Kapı açık... gir içeri




Ölümler Tab - Düş Sokağı Sakinleri akoru
Ölümler Tab - Düş Sokağı Sakinleri notaları,
Ölümler Tab - Düş Sokağı Sakinleri tablar bas tablar akord akor oku



iletisim  Reklam  Gizlilik sözlesmesi
Diger sitelerimize baktiniz mi ? Radyo Dinle - milli piyango sonuclari - 2017 yeni yil mesajlari - Güzel sözler Sohbet 2003- 2016 Canim.net Her hakki saklidir.