Güzel sözler | Fıkra | Hikaye | Şiir - Şair| Şarkı sözleri | Türküler | Sohbet odaları | Rüya | Sağlık | Biyografi | islam | Güzeller | Paylaş


Canim.net
Akorlar
Akor Ekle
Şarkı sözleri
Yabancı şarkı sözleri
Çeviriler
Türkü
A  B  C  Ç  D  E  F  G  Ğ  H  I  İ  J  K  L  M  N  O  Ö  P  R  S  Ş  T  U  Ü  V  Y  Z 



Ölüm Tab - Murat Çelik



----------------------5--7-5----------------
B---7-7-7--7h5-7--5-7-8-------8-8-7-7--------
G-4------------------------------------------ X 2
D-------------------------------------------- &
A-------------------------------------------- &
E-------------------------------------------- &

e------5--------7-5-------------------------- B-5-7-8---8h7-8-----8-7--8-7-5-5-3-3---------
G-------------------------------------------- X 2
D-------------------------------------------- &
A-------------------------------------------- &
E-------------------------------------------- &

e--------------------------------------------
B-2-3s5--7--5s3-5--3-2-3---------------------
G-----------------------4--2s4--------------- X 2
D-------------------------------------------- &
A-------------------------------------------- &
E-------------------------------------------- &




Ölüm Tab - Murat Çelik akoru
Ölüm Tab - Murat Çelik notaları,
Ölüm Tab - Murat Çelik tablar bas tablar akord akor oku



iletisim  Reklam  Gizlilik sözlesmesi
Diger sitelerimize baktiniz mi ? Radyo Dinle - milli piyango sonuclari - 2017 yeni yil mesajlari - Güzel sözler Sohbet 2003- 2016 Canim.net Her hakki saklidir.