Güzel sözler | Fıkra | Hikaye | Şiir - Şair| Şarkı sözleri | Türküler | Sohbet odaları | Rüya | Sağlık | Biyografi | islam | Güzeller | Paylaş


Canim.net
Akorlar
Akor Ekle
Şarkı sözleri
Yabancı şarkı sözleri
Çeviriler
Türkü
A  B  C  Ç  D  E  F  G  Ğ  H  I  İ  J  K  L  M  N  O  Ö  P  R  S  Ş  T  U  Ü  V  Y  Z 



Öfke Tab - Erkin Koray



intro:

e|-------------------------------------------------------
b|-----3~~-----1-----------------------------------------
g|---2-----------2-----0--2------------------------------
d|-3-----------------3------3--0---------0-0-0-----3--0--
a|----------------------------------0-3----------3-------
e|-------------------------------------------------------
^^^^^^^^^^^^^^^^^^^^^^^^^^^^^^^^^^^^^^^^^^^^^^^^^^^^
4 defa


transition:
e|--------0----------|--------0----------|}
b|-3--1-3-----3-1-3--|-3--1-3-----3-1-3--|}
g|-------------------|-------------------|}
d|-------------------|-------------------|}
a|-------------------|-------------------|}
e|-------------------|-------------------|}
}> > Tekrar 2 defa
e|--------1----------|--------0----------|}
b|-3--1-3-----3-1-3--|-3--1-3-----3-1-3--|}
g|-------------------|-------------------|}
d|-------------------|-------------------|}
a|-------------------|-------------------|}
e|-------------------|-------------------|}

Dm
Bir tutam öfke takilir kalir içimde
C
Kurtulamam, atamam bu öfkeyi içimden
Dm
Binlerce hile,binlerce hurda varken
C
Bunlari unutamam namert cirit atarken

F
Seninle bir olalim,
Gm
Kurtulalim atalim,
Bb
Bu bitmeyen öfkeden
C Dm
Gel kurtar beni!..

Dm
Bir tutam öfke sarar damarlarimi,
C
Öfke tastan kati, yoksa keskin satir mi?
Dm
Sanki bir gün gelir, öfke bir kabus gibi
C
Öyle bir yerlesir, içimden gitmez gibi!...




Öfke Tab - Erkin Koray akoru
Öfke Tab - Erkin Koray notaları,
Öfke Tab - Erkin Koray tablar bas tablar akord akor oku



iletisim  Reklam  Gizlilik sözlesmesi
Diger sitelerimize baktiniz mi ? Radyo Dinle - milli piyango sonuclari - 2017 yeni yil mesajlari - Güzel sözler Sohbet 2003- 2016 Canim.net Her hakki saklidir.