Güzel sözler | Fıkra | Hikaye | Şiir - Şair| Şarkı sözleri | Türküler | Sohbet odaları | Rüya | Sağlık | Biyografi | islam | Güzeller | Paylaş


Canim.net
Akorlar
Akor Ekle
Şarkı sözleri
Yabancı şarkı sözleri
Çeviriler
Türkü
A  B  C  Ç  D  E  F  G  Ğ  H  I  İ  J  K  L  M  N  O  Ö  P  R  S  Ş  T  U  Ü  V  Y  Z 



Ordu nun Dereleri - Ayşegül



Am C Dm & Am C
E|----------------|0-3-3-0-01--0---|----0-1-1-0-1310-|0---0---0---- ---|
B|----1-3-355-----|--------------3-|------------- ---|------3-----3531-|
G|----------------|----------------|------------- ---|------------- ---|
-3- -3-
Am C Dm & Am C
E|--------0---0---|0-3-3-0-011-0-3-|----0-1-1-0-130-|0---0---0------0|
B|----1-3---------|----------------|----------------|------3-----313-|
G|----------------|----------------|----------------|----------------|

Am C Dm Am
E|--------0-131-0-|0---0-----------|----------------|0---------------|
B|1---1-3---------|------3-35--3-1-|----1-3-3---3-1-|--3-1---1-------|
G|----------------|----------------|----------------|------3-----3-2-|

Gm Am & C
E|----------------|----------------|--------0-131-0-|0---0-----------|
B|--01------------|----------------|----1-3---------|------3-35--3-1-|
G|----3-2-3-2-3-0-|2---------------|----------------|----------------|

Dm Am Gm Am
E|----------------|0---------------|----------------|----------------|
B|----1-3-3---3-1-|--3-1---1-------|--01------------|----------------|
G|----------------|------3-----3-2-|----3-2-3-2-3-0-|2---------------|

Am C Dm Am C
Ordunun dereleri, aksa yukari aksa

Am C Dm Am Gm Am
Vermem seni ellere, Ordu üstüme kalksa, sürmelim amman

Am C Dm Am C
Oy Mehmedim Mehmedim, sana küstüm demedim,

Am C Dm Am Gm Am
Beni sana geçmisler, vallahi ben demedim, sürmelim amman

(intro & solo)

Am C Dm Am C
Ordunun dereleri, kara yosun bagliyor,

Am C Dm Am Gm Am
Kalk gidelim sevdigim, anan evde agliyor, sürmelim amman

Am C Dm Am C
Oy Mehmedim Mehmedim, sana küstüm demedim,

Am C Dm Am Gm Am
Beni sana geçmisler, vallahi ben demedim, sürmelim amman




Ordu nun Dereleri - Ayşegül akoru
Ordu nun Dereleri - Ayşegül notaları,
Ordu nun Dereleri - Ayşegül tablar bas tablar akord akor oku



iletisim  Reklam  Gizlilik sözlesmesi
Diger sitelerimize baktiniz mi ? Radyo Dinle - milli piyango sonuclari - 2017 yeni yil mesajlari - Güzel sözler Sohbet 2003- 2016 Canim.net Her hakki saklidir.