Güzel sözler | Fıkra | Hikaye | Şiir - Şair| Şarkı sözleri | Türküler | Sohbet odaları | Rüya | Sağlık | Biyografi | islam | Güzeller | Paylaş


Canim.net
Akorlar
Akor Ekle
Şarkı sözleri
Yabancı şarkı sözleri
Çeviriler
Türkü
A  B  C  Ç  D  E  F  G  Ğ  H  I  İ  J  K  L  M  N  O  Ö  P  R  S  Ş  T  U  Ü  V  Y  Z 



One Last Goodbye - Anathema



ONE LAST GOODBYE

somehow I knew you could never stay
somehow I knew you would leave me...
(x2) Acoustic guitar 1st time 2nd time
|-3---3---2-0---0---2-0---0---2---|-2-0------------|-2-0---------------------|
|-0-0---0---0-0---0---0-0---0---0-|-0---0--0---0-0-|-0---0-0---0-0--0-0------|
|---------------------0-----------|-2------4-2---4-|-2-----4-2---4-2--3------|
|---------------------------------|--------0-----4-|-------0----------4------|
|---------------------------------|--------------2-|-------------4----4------|
|---------------------------------|----------------|------------------2------|



|--------------------------|
|----------0-----0---------|
|------------0-------------|
|-74----4-----------4-----|
|-52--2-------2---------2-|
|--------------------------|

How I needed you -> How I grieve now youre gone
In my dreams I see you -> I awake so alone
|---0-0000-0000-| |--------------------------------|
|---0-0000-0000-| |------------------0-----0-------|
(x2)|---0-0000-0000-|(x2)|--------------------0-----------|
|-4-5-5555-5555-| |---------74----4----------4----|
|-4-5-5555-5555-| |---------52--2-------2-------2-|
|-2-3-3333-3333-| |--------------------------------|

|--------------------------|
|--------------------------|
(x2)|------7-4-4444-4444-------|
|------7-4-4444-4444-------|
|------5-2-2222-2222-------|
|--------------------------|

I know you didnt want to leave -> Your heart yearned to stay
But the strength I always loved in you -> Finally gave way
|---0-0000-0000-|-0-0-0000-0000-|----------2-2222-2222-|-0-0000-0000-|
|---0-0000-0000-|-0-0-0000-0000-|----------3-3333-3333-|-2-2222-2222-|
(x2)|---0-0000-0000-|-0-0-0000-0000-|--------7-4-4444-4444-|-2-2222-2222-|
|-4-5-5555-5555-|-5-2-2222-2222-|--------7-4-4444-4444-|-2-2222-2222-|
|-4-5-5555-5555-|-5-2-2222-2222-|--------5-2-2222-2222-|-0-0000-0000-|
|-2-3-3333-3333-|-3-0-0000-0000-|----------------------|-------------|

Somehow I knew you would leave me this way
|-3-3333-3333-3333-3333-|-2-2222-2222-2-0-0000-0000-|
|-0-0000-0000-0000-0000-|-3-3333-3333-3-2-2222-2222-|
|-0-0000-0000-0000-0000-|-4-4444-4444-4-2-2222-2222-|
|-2-2222-2222-2222-2222-|-4-4444-4444-4-2-2222-2222-|
|-2-2222-2222-2222-2222-|-2-2222-2222-2-0-0000-0000-|
|-0-0000-0000-0000-0000-|---------------------------|

Somehow I knew you could never, never stay
And in the early morning light After a silent peaceful night
You took my heart away And I grieve
|-0-0000-0000-0000-0000|-------2-2222-2222-2-0-0000-0000-|
|-0-0000-0000-0000-0000|-------3-3333-3333-3-2-2222-2222-|
|-0-0000-0000-0000-0000|-------4-4444-4444-4-2-2222-2222-|
|-2-2222-2222-2222-2222|-------4-4444-4444-4-2-2222-2222-|
|-2-2222-2222-2222-2222|-------2-2222-2222-2-0-0000-0000-|
|-0-0000-0000-0000-0000|---------------------------------|

In my dreams I can see you, I can tell you how I feel.
In my dreams I can hold you, and it feels so real.
(Distortion)
|----------------------|---------------------------------|
|----------------------|---------------------------------|
(x2)|----------------------|--------7-4-----4-------7-4---4--|
|-4-5--5-------4-5---5-|--------7-4-----4-------7-4---4--|
|-4-5--5-------4-5---5-|--------5-2-----2-------5-2---2--|
|-2-3--3-------2-3---3-|---------------------------------|

I still feel the pain, I still feel your love
I still feel the pain, I still feel your love
|----------------------|-------------------------|
|----------------------|-------------------------|
(x2)|----------------------|--------7-4----4-------2-|
|-4-5--5-------5-2---2-|--------7-4----4-------2-|
|-4-5--5-------5-2---2-|--------5-2----2-------0-|
|-2-3--3-------3-0---0-|-------------------------|

And somehow I knew you could never, never stay
|-------------------------------------|
|-------------------------------------|
|----------------------4------------2-|
|-5-----5--------------4------------2-|
|-5-----5--------------2------------0-|
|-3-----3-----------------------------|

And somehow I knew you would leave me
|-------------------------------------|
|-------------------------------------|
|----------------------7------------2-|
|-2-----2--------------7------------2-|
|-2-----2--------------5------------0-|
|-0-----0-----------------------------|

And in the early morning light,after a silent peaceful night.
|-----------------------------------------------|
|-----------------------------------------------|
|-----------------------------4---------------2-|
|-2------------------2--------4---------------2-|
|-2------------------2--------2---------------0-|
|-0------------------0--------------------------|

You took my heart away. Oh, I wished, I wished you could have stayed.
|--------------------------------------|
|--------------------------------------|
|--------------------------7---------2-|
|-2-----------------2------7---------2-|
|-2-----------------2------5---------0-|
|-0-----------------0------------------|


Solo E5 B5 A5 E5
|----------------------------------------------------------------------------|
|------------14-15-----------------------------------------------------------|
|14-14~~--16-------14-14&12-11~--12-14--------------------------------------|
|--------------------------------------14~~-slide down--14bf(16)14~-12------|
|-----------------------------------------------------------------------14---|
|----------------------------------------------------------------------------|

D5
|----------------------------------------------------------------------------|
|----------------------------------------------------------------------------|
|----------------------------------------------------------------------------|
|-12h14~~-slide down-----12-14-12----12-14-14bf(16)14-12----12-14bf(16)14~--|
|----------------------14----------14---------------------14-----------------|
|----------------------------------------------------------------------------|

A5 E5 B5
|---------------------------------------------------------17~-15h17p15p14h15|
|---------------------------17-------17------17----17----17------------------|
|-------------------14-14~----14-14----14-14---14----14---------------------|
|-12-12h1412p11--------------------------------------------------------------|
|---------------12~----------------------------------------------------------|
|----------------------------------------------------------------------------|

A5 E5 D5 F#5
|p14-------------------------------------------------------------------------|
|---15-----------------------------------------------------------------------|
|------14bf(16)14~~-12-11bf(12)--(11bh)12backto11----12-11-------------------|
|------------------------------14~----------------14~-----12~-14p12p11~-119~|
|----------------------------------------------------------------------------|
|----------------------------------------------------------------------------|

ve son olarak: F#5-G5-G5-A5-D5-B5-D5-B5-D5-B5-B5-G5







One Last Goodbye - Anathema akoru
One Last Goodbye - Anathema notaları,
One Last Goodbye - Anathema tablar bas tablar akord akor oku



iletisim  Reklam  Gizlilik sözlesmesi
Diger sitelerimize baktiniz mi ? Radyo Dinle - milli piyango sonuclari - 2017 yeni yil mesajlari - Güzel sözler Sohbet 2003- 2016 Canim.net Her hakki saklidir.