Güzel sözler | Fıkra | Hikaye | Şiir - Şair| Şarkı sözleri | Türküler | Sohbet odaları | Rüya | Sağlık | Biyografi | islam | Güzeller | Paylaş


Canim.net
Akorlar
Akor Ekle
Şarkı sözleri
Yabancı şarkı sözleri
Çeviriler
Türkü
A  B  C  Ç  D  E  F  G  Ğ  H  I  İ  J  K  L  M  N  O  Ö  P  R  S  Ş  T  U  Ü  V  Y  Z 



On A Plain - Nirvana





Drop-D tuning

Verse
G-|------------------------------------------------------------------
D-|*--------------------------------------------3-5--3-3-5-3-2-2-2h3-
A-|*-&5--5-5-2-2-3-2-0-0-2-0---------5--5-5-0-2----------------------
D-|-------------------------4-4-5-2----------------------------------


G-|------------------------------------------------------------|
D-|----------------------------------------------------------*-|
A-|-5--5-5-3--3-3-2--2-0--0-2-3-5--5-5-0--0-0----------------*-| repeat(2x)
D-|-------------------------------------------5--5--4-5-4-2----|

Chorus
G-|-------------------------------------|
D-|*----------------------------------*-|
A-|*-5--5-5---------8-8-8-8-8-8-8-8---*-| repeat(4x)
D-|---------5--5-5----------------------|

Bridge
G-|-----------------------------------------------------------------|
D-|*--------------------------------------------------------------*-|
A-|*----------------------------------7---7-----------------------*-| repeat(3x)
D-|--3--3-3--3-3-0-2--2-2--2-2-2-7--7---7---7-5-5-5-0-5-5-5-4-3-----|
|
Play this instead of that on the 4th time-|
G-|-----------------|
D-|-----------------|
A-|-----------------|
D-|-5-5-5-5-5-3-2-0-|





On A Plain - Nirvana akoru
On A Plain - Nirvana notaları,
On A Plain - Nirvana tablar bas tablar akord akor oku



iletisim  Reklam  Gizlilik sözlesmesi
Diger sitelerimize baktiniz mi ? Radyo Dinle - milli piyango sonuclari - 2017 yeni yil mesajlari - Güzel sözler Sohbet 2003- 2016 Canim.net Her hakki saklidir.