Güzel sözler | Fıkra | Hikaye | Şiir - Şair| Şarkı sözleri | Türküler | Sohbet odaları | Rüya | Sağlık | Biyografi | islam | Güzeller | Paylaş


Canim.net
Akorlar
Akor Ekle
Şarkı sözleri
Yabancı şarkı sözleri
Çeviriler
Türkü
A  B  C  Ç  D  E  F  G  Ğ  H  I  İ  J  K  L  M  N  O  Ö  P  R  S  Ş  T  U  Ü  V  Y  Z 



Okyanus - Şebnem Ferah



intro
clean
E----------------------------------------|------------------||
B-------10-----9-------------------------|---------10-----9-||
G-----7----7------7----10-------9&10-9---|-----7------7-----||
D---0--------0------8-----0--------------|---0---0-----0----||
A-0-------------------------0------------|-0----------------||
E----------------------------------------|------------------||
(------- X 3 -------) son bölüm...

ilp
(intro ile birlikte distortion)
E-------------------------------------------------------------
B-------------------------------------------------------------
G----------------------------5&7-6v---------------------------
D----6-7---------------6-7---5&7---------6-7------------------
A-5--6-7-8-5-7&8-7---5-6-7-8----------5--6-7-8-5-7&8-7--5-8-5-
E-5------8-5-7&8-7---5-----8----------5------8-5-7&8-7--5-8-5-



(Gitar X)
E--------------------------------------
B--------------------------------------
G--------------------------------------
D----6-7---------------6-7-------------
A-5--6-7-8-5-7&8-7---5-6-7-8-5-7&8-7---
E-5------8-5-7&8-7---5-----8-5-7&8-7---

(Gitar Z)
E-------------------------------------------------------------
B-------------------------------------------------------------
G-------------------------------------------------------------
D----------7-7-7---------------------7-7-7-----------7-7-7----
A-5-5--5-5-6-6-6&7-5-5--5-5--5-5-5-5-6-6-6&7-5-5-5-5-6-6-6&7--
E-5-5--5-5---------5-5--5-5--5-5-5-5---------5-5-5-5----------
Önümde agir...

***Gitar X

***Gitar Z
Iste o an biri geliyor,
Tutuyor kulagimdan,
Gözü anahtar deliginde
"Bak" diyor sadece burdan,

***Gitar X

(Gitar Y)
E-----------------------------------|---------------------------||
B-----------------------------------|---------------------------||
G-----------------------------------|---------------------------||
D-----------------------------------|---------------------------||
A-7-7-X-7-7-X-7-7--3-3-X-3-3-X-3-3--|-7-5-7-5-7-5-7-5-7-5-7-5-8-||
E-5-5-X-5-5-X-5-5--1-1-X-1-1-X-1-1--|-7-5-7-5-7-5-7-5-7-5-7-5-8-||
"Birak" diyorum......... ....bilegimi şimdi..


***Gitar Z
önümde ağır bir ......


***Gitar Y
"Bak" diyorum koca......



E-----------------------------------------------------------
B-----------------------------------------------------------
G-----------------------------------------------------------
D-7-X-X-X-X-7-X-X-X-X-7-X-X-X--7-X-X-X-X-7-X-X-X-X-7-X-X-X--
A-5-X-X-X-X-5-X-X-X-X-7-X-X-X--5-X-X-X-X-5-X-X-X-X-7-X-X-X--
E-5-X-X-X-X-5-X-X-X-X-5-X-X-X--5-X-X-X-X-5-X-X-X-X-5-X-X-X--
Bir ileri bir geri her adim bu..

E-----------------------------------------------------------
B-----------------------------------------------------------
G-----------------------------------------------------------
D-5-X-X-X-X-5-X-X-X-X-5-X-X-X--5-X-X-X-X-5-X-X-X-X-5-X-X-X--
A-3-X-X-X-X-3-X-X-X-X-3-X-X-X--3-X-X-X-X-3-X-X-X-X-5-X-X-X--
E-3-X-X-X-X-3-X-X-X-X-3-X-X-X--3-X-X-X-X-3-X-X-X-X-3-X-X-X--
kapının ardi demek..

E-----------------------------------------------------------
B-----------------------------------------------------------
G-----------------------------------------------------------
D-3-X-X-X-X-3-X-X-X-X-3-X-X-X--3-X-X-X-X-3-X-X-X-X-3-X-X-X--
A-1-X-X-X-X-1-X-X-X-X-1-X-X-X--1-X-X-X-X-1-X-X-X-X-1-X-X-X--
E-1-X-X-X-X-1-X-X-X-X-1-X-X-X--1-X-X-X-X-1-X-X-X-X-1-X-X-X--
Sonunda bogulmak olsa da Benim o sularda

E-----------------------------------------------------------
B-----------------------------------------------------------
G-----------------------------------------------------------
D-5-X-X-X-X-5-X-X-X-X-5-X-X-X--5-X-X-X-X-5-X-X-X-X-5-X-X-X--
A-3-X-X-X-X-3-X-X-X-X-3-X-X-X--3-X-X-X-X-3-X-X-X-X-5-X-X-X--
E-3-X-X-X-X-3-X-X-X-X-3-X-X-X--3-X-X-X-X-3-X-X-X-X-3-X-X-X--
yüzmem gerek

-------------------
-8v-8-9-6-8-6------
--------------5-7--
-------------------
-------------------
-------------------

Anahtar deliginden görünen
Bu küçük manzara sana yetiyorsa, yetsin
Benim o sularda yüzmem gerek.
Yüzmem gerek...









Okyanus - Şebnem Ferah akoru
Okyanus - Şebnem Ferah notaları,
Okyanus - Şebnem Ferah tablar bas tablar akord akor oku



iletisim  Reklam  Gizlilik sözlesmesi
Diger sitelerimize baktiniz mi ? Radyo Dinle - milli piyango sonuclari - 2017 yeni yil mesajlari - Güzel sözler Sohbet 2003- 2016 Canim.net Her hakki saklidir.