Güzel sözler | Fıkra | Hikaye | Şiir - Şair| Şarkı sözleri | Türküler | Sohbet odaları | Rüya | Sağlık | Biyografi | islam | Güzeller | Paylaş


Canim.net
Akorlar
Akor Ekle
Şarkı sözleri
Yabancı şarkı sözleri
Çeviriler
Türkü
A  B  C  Ç  D  E  F  G  Ğ  H  I  İ  J  K  L  M  N  O  Ö  P  R  S  Ş  T  U  Ü  V  Y  Z 



Numb - Linkin Park



E|---------------14--17--16-------------17--16--12-------|
B|---14--15--14--------------14--15--14------------------|
G|-------------------------------------------------------|
D|-------------------------------------------------------|
A|-------------------------------------------------------|
E|-------------------------------------------------------|



F#m D
Im tired of being what you want me to be
A
Feeling so faithless
E
Lost under the surface
F#m D
I dont know what youre expecting of me
A
Put under the pressure
E D
of walking in your shoes
E
(Caught in the undertow, just caught in the undertow)


Pre Chorus:

F#m
Every step that I take is
A D
another mistake to you
E
(Caught in the undertow, just caught in the undertow)


Chorus:

F#m D
Ive became so numb
A
I cant feel you there
E
Become so tired
F#m
So much more aware
D
Im becoming this
A
All I want to do
E
Is be more like me
F#m
And be less like you



E|---------------14--17--16-------------17--16--12-------|
B|---14--15--14--------------14--15--14------------------|
G|-------------------------------------------------------|
D|-------------------------------------------------------|
A|-------------------------------------------------------|
E|-------------------------------------------------------|


D
Cant you see that youre smothering me
A E F#m
Holding too tightly afraid to lose control
D
Cause everything that you thought I would be
A E D
Has fallen apart right in front of you
E
(Caught in the undertow, just caught in the undertow)
F#m
Every step that I take is
A D
another mistake to you
E
(Caught in the undertow, just caught in the undertow)
F#m A
And every second I waste is more than I can take


Chorus:

F#m D
Ive became so numb
A
I cant feel you there
E
Become so tired
F#m
So much more aware
D
Im becoming this
A
All I want to do
E
Is be more like me
F#m
And be less like you


End:

E F#m G#m A C#m D
And I know I may end up failing, too.
E C#m
But I know you were just like me with someone disappointed in you


Chorus:

F#m D
Ive became so numb
A
I cant feel you there
E
Become so tired
F#m
So much more aware
D
Im becoming this
A
All I want to do
E
Is be more like me
F#m
And be less like you

D
Ive become so numb
A
I cant feel you there
E
(Tired of being what you want me to be)

F#m D
Ive become so numb
A
I cant feel you there
E
(Tired of being what you want me to be)


E|---------------14--17--16-------------17--16--12-------|
B|---14--15--14--------------14--15--14------------------|
G|-------------------------------------------------------|
D|-------------------------------------------------------|
A|-------------------------------------------------------|
E|-------------------------------------------------------|




Numb - Linkin Park akoru
Numb - Linkin Park notaları,
Numb - Linkin Park tablar bas tablar akord akor oku



iletisim  Reklam  Gizlilik sözlesmesi
Diger sitelerimize baktiniz mi ? Radyo Dinle - milli piyango sonuclari - 2017 yeni yil mesajlari - Güzel sözler Sohbet 2003- 2016 Canim.net Her hakki saklidir.