Güzel sözler | Fıkra | Hikaye | Şiir - Şair| Şarkı sözleri | Türküler | Sohbet odaları | Rüya | Sağlık | Biyografi | islam | Güzeller | Paylaş


Canim.net
Akorlar
Akor Ekle
Şarkı sözleri
Yabancı şarkı sözleri
Çeviriler
Türkü
A  B  C  Ç  D  E  F  G  Ğ  H  I  İ  J  K  L  M  N  O  Ö  P  R  S  Ş  T  U  Ü  V  Y  Z 



Nothing On The Inside tab - Benediction



. = palm mute
" = tremolo pick

Tune to 1 whole step down (DGCFAD)

Very easy song here.
I wont waste my time noting the timing.

INTRO (0:00 - 0:13)
D|-------------------------------------------------------------------|
A|-------------------------------------------------------------------|
F|-------------------------------------------------------------------| G I
C|-------------------------------------------------------------------|
G|--------3-5-----5-6-------5-6-3---------3-5-----5-6-------3-2-3-3--|
D|--0-0-0-1-3-0-0-3-4-0-0-0-3-4-1---0-0-0-1-3-0-0-3-4-0-0-0-1-0-1-1--|
| ..... ... ..... ..... ... ............. |
D|-------------------------------------------------------------------|
A|-------------------------------------------------------------------|
F|-------------------------------------------------------------------| G II
C|--2----------------------------------------------------------------|
G|--2-------------------------------------------------------3-2-3-3--|
D|--0-------------------------------------------------------1-0-1-1--|
. .......
D|-------------------------------------------------------------------|
A|-------------------------------------------------------------------|
F|-------------------------------------------------------------------| G I
C|-------------------------------------------------------------------|
G|--------3-5-----5-6-------5-6-3---------3-5-----5-6-------3-2-3-3--|
D|--0-0-0-1-3-0-0-3-4-0-0-0-3-4-1---0-0-0-1-3-0-0-3-4-0-0-0-1-0-1-1--|
| ..... ... ..... ..... ... ............. |
D|-------------------------------------------------------------------|
A|-------------------------------------------------------------------|
F|-------------------------------------------------------------------| G II
C|--2-------------------------------2--------------------------------|
G|--2-------------------------------2-----------------------3-2-3-3--|
D|--0----------------------------1--0-----------------------1-0-1-1--|
. .......

RIFF A 4x (0:13 - 0:39)
D|-------------------------------------------------------------------|
A|-------------------------------------------------------------------|
F|-------------------------------------------------------------------| G I II
C|-------------------------------------------------------------------|
G|--------3-5-----5-6-------5-6-3---------3-5-----5-6-------3-2-3-3--|
D|--0-0-0-1-3-0-0-3-4-0-0-0-3-4-1---0-0-0-1-3-0-0-3-4-0-0-0-1-0-1-1--|
..... ... ..... ..... ... .............


RIFF B 2x (0:39 - 0:52)
D|------------------------------|
A|------------------------------|
F|------------------------------|
C|------------------------------|
G|------------------------------|
D|--6"--4"--3"----1"--4"--3"----|

RIFF A 4x (0:52 - 1:18)
RIFF B 4x (1:18 - 1:43)

RIFF C 9x (1:44 - 2:14)
D|-------------------------------------|
A|-------------------------------------|
F|-------------------------------------|
C|-------------------------------------|
G|--3-2----3333-5555-3-2----3333-5555--|
D|--1-0--0-1111-3333-1-0--0-1111-3333--|
... . .... .... ... . .........

RIFF D 4x (2:14 - 2:42)
D|------------------------------------------------------|
A|------------------------------------------------------|
F|------------------------------------------------------|
C|------------------------------------------------------|
G|--5-22-3-5-22-3-5-22-88888-5-22-3-5-22-3-5-22-999999--|
D|--3-00-1-3-00-1-3-00-66666-3-00-1-3-00-1-3-00-777777--|

RIFF C 8x (2:42 - 3:11)
RIFF B 4x (3:11 - 3:36)
RIFF A 5x (3:37 - 4:10)
RIFF C 8x (4:10 - 4:41) and it ends with a Eb5 D5. Simple as that.




Nothing On The Inside tab - Benediction akoru
Nothing On The Inside tab - Benediction notaları,
Nothing On The Inside tab - Benediction tablar bas tablar akord akor oku



iletisim  Reklam  Gizlilik sözlesmesi
Diger sitelerimize baktiniz mi ? Radyo Dinle - milli piyango sonuclari - 2017 yeni yil mesajlari - Güzel sözler Sohbet 2003- 2016 Canim.net Her hakki saklidir.