Güzel sözler | Fıkra | Hikaye | Şiir - Şair| Şarkı sözleri | Türküler | Sohbet odaları | Rüya | Sağlık | Biyografi | islam | Güzeller | Paylaş


Canim.net
Akorlar
Akor Ekle
Şarkı sözleri
Yabancı şarkı sözleri
Çeviriler
Türkü
A  B  C  Ç  D  E  F  G  Ğ  H  I  İ  J  K  L  M  N  O  Ö  P  R  S  Ş  T  U  Ü  V  Y  Z 



North Berwick Witch Trials tab - Cathedral



Gtr I (This lick is made by guitar 2)
|---------|-----13b15r=13-11h13-|-11-11-11-11-11-11-11-10h11-|-10----|
|---------|---------------------|----------------------------|-------|
|---------|---------------------|----------------------------|-------|
|-5-------|-5-------------------|--5-------------------------|--5----|
|-3-------|-3-------------------|--3-------------------------|--3----|
|---------|---------------------|----------------------------|-------|

Guit.I
|------------|--------------|-------------|---------------|----|
|------------|--------------|-------------|---------------|----|
|------------|--------------|-------------|---------------|----|
|----5---5-6-|----5---5-6---|-----5---5-6-|-----5---5-6---|----|
|-3----3-----|-3----3-----3S|=6-6---6-----|-6-6---6-----6-|----|
|------------|--------------|-------------|---------------|----|


|-------------|---------------|-------------|---------------|----|
|-------------|---------------|-------------|---------------|----|
|-------------|---------------|-------------|---------------|----|
|-----5---5-6-|-----5---5-6---|-----5---5-6-|-----5---5-6---|----|
|-3-3---3-----|-3-3---3-----3-|-6-6---6-----|-6-6---6-----6-|----|
|-------------|---------------|-------------|---------------|----|

Guitar II enters here
|-----------|-------------|------------|-------------|-----------------|----|
|-----------|-------------|------------|-------------|-----------------|----|
|-----------|-------------|------------|-------------|-----------------|----|
|-----6---6-|-----8---6---|-----5---6--|-----5---6---|-5-5-5-5-5-5-5-5-|-5&-|
|-5-5---5---|-5-5---5---5-|-4-4---4----|-4-4---4---4-|-3-3-3-3-3-3-3-3-|-3&-|
|-----------|-------------|------------|-------------|-----------------|----|


Guit.I,II
|------------|--------------|-------------|---------------|----|
|------------|--------------|-------------|---------------|----|
|------------|--------------|-------------|---------------|----|
|----5---5-6-|----5---5-6---|-----5---5-6-|-----5---5-6---|----|
|-3----3-----|-3----3-----3S|=6-6---6-----|-6-6---6-----6-|----|
|------------|--------------|-------------|---------------|----|


|-------------|---------------|-------------|---------------------|----|
|-------------|---------------|-------------|---------------------|----|
|-------------|---------------|-------------|---------------------|----|
|-----5---5-6-|-----5---5-6---|-----5---5-6-|-----5---6--5h6p5----|----|
|-3-3---3-----|-3-3---3-----3-|-6-6---6-----|-6-6---6-----------6-|----|
|-------------|---------------|-------------|---------------------|----|


|-----------|-------------|------------|-------------|-----------------|----|
|-----------|-------------|------------|-------------|-----------------|----|
|-----------|-------------|------------|-------------|-----------------|----|
|-----6---6-|-----8---6---|-----5---6--|-----5---6---|-5-5-5-5-5-5-5-5-|-5&-|
|-5-5---5---|-5-5---5---5-|-4-4---4----|-4-4---4---4-|-3-3-3-3-3-3-3-3-|-3&-|
|-----------|-------------|------------|-------------|-----------------|----|



|-------------|----------|-------------|-----------|----|
|-------------|----------|-------------|-----------|----|
|-------------|----------|-------------|-----------|----|
|-10-10-8-10--|-8-5-8--8-|-10-10-8-10--|-8-5-------|----|
|--8--8-6--8--|-6-3-6--6-|--8--8-6--8--|-6-3-6--6--|----|
|-------------|----------|-------------|-----4--4--|----|


|-------------|----------|-------------|------------|----|
|-------------|----------|-------------|------------|----|
|-------------|----------|-------------|------------|----|
|-10-10-8-10--|-8-5-8--8-|-10-10-8-10--|-8-5--------|----|
|--8--8-6--8--|-6-3-6--6-|--8--8-6--8--|-6-3-6s8-6--|----|
|-------------|----------|-------------|-----4s6-4--|----|


|-------------|----------|-------------|-----------|----|
|-------------|----------|-------------|-----------|----|
|-------------|----------|-------------|-----------|----|
|-10-10-8-10--|-8-5-8--8-|-10-10-8-10--|-8-5-------|----|
|--8--8-6--8--|-6-3-6--6-|--8--8-6--8--|-6-3-6--6--|----|
|-------------|----------|-------------|-----4--4--|----|


|-------------|----------|-------------|------------|----|
|-------------|----------|-------------|------------|----|
|-------------|----------|-------------|------------|----|
|-10-10-8-10--|-8-5-8--8-|-10-10-8-10--|-8-5--------|----|
|--8--8-6--8--|-6-3-6--6-|--8--8-6--8--|-6-3-6s8-6--|----|
|-------------|----------|-------------|-----4s6-4--|----|



|-------------|-----------|-------------|-----------------|----|
|-------------|-----------|-------------|-----4-----------|----|
|-------------|-3-3-3-3-3-|-------------|---3---3-----3---|----|
|---2---2-3-2-|-1-1-1-1-1-|---2---2-3-2-|-1---------3-----|----|
|-------------|-----------|-------------|---------1-----0-|----|
|-3---3-------|-----------|-3---3-------|-----------------|----|


|-------------|-----------|-------------|-----------------|----|
|-------------|-----------|-------------|-----4-----------|----|
|-------------|-3-3-3-3-3-|-------------|---3---3-----3---|----|
|---2---2-3-2-|-1-1-1-1-1-|---2---2-3-2-|-1---------3-----|----|
|-------------|-----------|-------------|---------1-----1|----|
|-3---3-------|-----------|-3---3-------|-----------------|----|


Guit.I,II
|------------|--------------|-------------|---------------|----|
|------------|--------------|-------------|---------------|----|
|------------|--------------|-------------|---------------|----|
|----5---5-6-|----5---5-6---|-----5---5-6-|-----5---5-6---|----|
|-3----3-----|-3----3-----3S|=6-6---6-----|-6-6---6-----6-|----|
|------------|--------------|-------------|---------------|----|


|-------------|---------------|-------------|-------------------|----|
|-------------|---------------|-------------|-------------------|----|
|-------------|---------------|-------------|-------------------|----|
|-----5---5-6-|-----5---5-6---|-----5---5-6-|-----5---6-5h6p5---|----|
|-3-3---3-----|-3-3---3-----3-|-6-6---6-----|-6-6---6---------6-|----|
|-------------|---------------|-------------|-------------------|----|


|-----------|-------------|------------|-------------|-----------------|----|
|-----------|-------------|------------|-------------|-----------------|----|
|-----------|-------------|------------|-------------|-----------------|----|
|-----6---6-|-----8---6---|-----5---6--|-----5---6---|-5-5-5-5-5-5-5-5-|-5&-|
|-5-5---5---|-5-5---5---5-|-4-4---4----|-4-4---4---4-|-3-3-3-3-3-3-3-3-|-3&-|
|-----------|-------------|------------|-------------|-----------------|----|


|-------------|----------|-------------|-----------|----|
|-------------|----------|-------------|-----------|----|
|-------------|----------|-------------|-----------|----|
|-10-10-8-10--|-8-5-8--8-|-10-10-8-10--|-8-5-------|----|
|--8--8-6--8--|-6-3-6--6-|--8--8-6--8--|-6-3-6--6--|----|
|-------------|----------|-------------|-----4--4--|----|


|-------------|----------|-------------|------------|----|
|-------------|----------|-------------|------------|----|
|-------------|----------|-------------|------------|----|
|-10-10-8-10--|-8-5-8--8-|-10-10-8-10--|-8-5--------|----|
|--8--8-6--8--|-6-3-6--6-|--8--8-6--8--|-6-3-6s8-6--|----|
|-------------|----------|-------------|-----4s6-4--|----|

|-------------|----------|-------------|-----------|----|
|-------------|----------|-------------|-----------|----|
|-------------|----------|-------------|-----------|----|
|-10-10-8-10--|-8-5-8--8-|-10-10-8-10--|-8-5-------|----|
|--8--8-6--8--|-6-3-6--6-|--8--8-6--8--|-6-3-6--6--|----|
|-------------|----------|-------------|-----4--4--|----|


|-------------|----------|-------------|------------|----|
|-------------|----------|-------------|------------|----|
|-------------|----------|-------------|------------|----|
|-10-10-8-10--|-8-5-8--8-|-10-10-8-10--|-8-5--------|----|
|--8--8-6--8--|-6-3-6--6-|--8--8-6--8--|-6-3-6s8-6--|----|
|-------------|----------|-------------|-----4s6-4--|----|




|-------------|-----------|-------------|-----------------|----|
|-------------|-----------|-------------|-----4-----------|----|
|-------------|-3-3-3-3-3-|-------------|---3---3-----3---|----|
|---2---2-3-2-|-1-1-1-1-1-|---2---2-3-2-|-1---------3-----|----|
|-------------|-----------|-------------|---------1-----0-|----|
|-3---3-------|-----------|-3---3-------|-----------------|----|


|-------------|-----------|-------------|-----------------|----|
|-------------|-----------|-------------|-----4-----------|----|
|-------------|-3-3-3-3-3-|-------------|---3---3-----3---|----|
|---2---2-3-2-|-1-1-1-1-1-|---2---2-3-2-|-1---------3-----|----|
|-------------|-----------|-------------|---------1-----1|----|
|-3---3-------|-----------|-3---3-------|-----------------|----|


Guit.I,II
|------------|--------------|-------------|---------------|----|
|------------|--------------|-------------|---------------|----|
|------------|--------------|-------------|---------------|----|
|----5---5-6-|----5---5-6---|-----5---5-6-|-----5---5-6---|----|
|-3----3-----|-3----3-----3S|=6-6---6-----|-6-6---6-----6-|----|
|------------|--------------|-------------|---------------|----|


|-------------|---------------|-------------|-------------------|----|
|-------------|---------------|-------------|-------------------|----|
|-------------|---------------|-------------|-------------------|----|
|-----5---5-6-|-----5---5-6---|-----5---5-6-|-----5---6-5h6p5---|----|
|-3-3---3-----|-3-3---3-----3-|-6-6---6-----|-6-6---6---------6-|----|
|-------------|---------------|-------------|-------------------|----|


|-----------|-------------|------------|-------------|-----------------|----|
|-----------|-------------|------------|-------------|-----------------|----|
|-----------|-------------|------------|-------------|-----------------|----|
|-----6---6-|-----8---6---|-----5---6--|-----5---6---|-5-5-5-5-5-5-5-5-|-5&-|
|-5-5---5---|-5-5---5---5-|-4-4---4----|-4-4---4---4-|-3-3-3-3-3-3-3-3-|-3&-|
|-----------|-------------|------------|-------------|-----------------|----|


Rhythm under solo Play 3x
|--------------|----------------||--------------|--------------|----|
|--------------|----------------||--------------|--------------|----|
|--------------|----------------||--------------|--------------|----|
|-8-8-8--8-8-8-|-13-11-10-11-6-||-8-8-8--8-8-8-|-13-11-10-11&-|----|
|-6-6-6--6-6-6-|-11--9--8--9-4-||-6-6-6--6-6-6-|-11--9--8--9&-|----|
|--------------|----------------||--------------|--------------|----|


Play 4x
|--------------------|----------------|----|
|--------------------|----------------|----|
|--------------------|----------------|----|
|-11-11-11--11-11-11-|-16-14-13-14-9-|----|
|--9--9--9---9--9--9-|-14-12-11-12-7-|----|
|--------------------|----------------|----|



Rhythm under outro solo Play 4x
|--------------|-----------------|
|--------------|-----------------|
|--------------|-----------------|
|-8-8-8--8-8-8-|-13-11-10-11-6&-|
|-6-6-6--6-6-6-|-11--9--8--9-4&-|
|--------------|-----------------|




|----------------|--------------|----------------|--------------|
|----------------|--------------|----------------|--------------|
|-5--------------|--------------|-5--------------|--------------|
|---8-6-5-6--6-5-|----6-5-------|---8-6-5-6--6-5-|----5---------|
|----------------|-8------8-6--|----------------|-8----8-6-5---|
|----------------|--------------|----------------|------------8-|


|----------------|--------------|----------------|----------------|
|----------------|--------------|----------------|----------------|
|-5--------------|--------------|-5--------------|----------------|
|---8-6-5-6--6-5-|----6-5-------|---8-6-5-6--6-5-|----5-----------|
|----------------|-8------8-6--|----------------|-8----8-6-5-----|
|----------------|--------------|----------------|------------8-6-|




Guit.I,II
|------------|--------------|-------------|---------------|----|
|------------|--------------|-------------|---------------|----|
|------------|--------------|-------------|---------------|----|
|----5---5-6-|----5---5-6---|-----5---5-6-|-----5---5-6---|----|
|-3----3-----|-3----3-----3S|=6-6---6-----|-6-6---6-----6-|----|
|------------|--------------|-------------|---------------|----|


|-------------|---------------|-------------|-------------------|----|
|-------------|---------------|-------------|-------------------|----|
|-------------|---------------|-------------|-------------------|----|
|-----5---5-6-|-----5---5-6---|-----5---5-6-|-----5---6-5h6p5---|----|
|-3-3---3-----|-3-3---3-----3-|-6-6---6-----|-6-6---6---------6-|----|
|-------------|---------------|-------------|-------------------|----|


|-----------|-------------|------------|-------------|-----------------|----|
|-----------|-------------|------------|-------------|-----------------|----|
|-----------|-------------|------------|-------------|-----------------|----|
|-----6---6-|-----8---6---|-----5---6--|-----5---6---|-5-5-5-5-5-5-5-5-|-5&-|
|-5-5---5---|-5-5---5---5-|-4-4---4----|-4-4---4---4-|-3-3-3-3-3-3-3-3-|-3&-|
|-----------|-------------|------------|-------------|-----------------|----|


|-------------|----------|-------------|-----------|----|
|-------------|----------|-------------|-----------|----|
|-------------|----------|-------------|-----------|----|
|-10-10-8-10--|-8-5-8--8-|-10-10-8-10--|-8-5-------|----|
|--8--8-6--8--|-6-3-6--6-|--8--8-6--8--|-6-3-6--6--|----|
|-------------|----------|-------------|-----4--4--|----|


|-------------|----------|-------------|------------|----|
|-------------|----------|-------------|------------|----|
|-------------|----------|-------------|------------|----|
|-10-10-8-10--|-8-5-8--8-|-10-10-8-10--|-8-5--------|----|
|--8--8-6--8--|-6-3-6--6-|--8--8-6--8--|-6-3-6s8-6--|----|
|-------------|----------|-------------|-----4s6-4--|----|

|-------------|----------|-------------|-----------|----|
|-------------|----------|-------------|-----------|----|
|-------------|----------|-------------|-----------|----|
|-10-10-8-10--|-8-5-8--8-|-10-10-8-10--|-8-5-------|----|
|--8--8-6--8--|-6-3-6--6-|--8--8-6--8--|-6-3-6--6--|----|
|-------------|----------|-------------|-----4--4--|----|


|-------------|----------|-------------|------------|----|
|-------------|----------|-------------|------------|----|
|-------------|----------|-------------|------------|----|
|-10-10-8-10--|-8-5-8--8-|-10-10-8-10--|-8-5--------|----|
|--8--8-6--8--|-6-3-6--6-|--8--8-6--8--|-6-3-6s8-6--|----|
|-------------|----------|-------------|-----4s6-4--|----|





|-------------|-----------|-------------|-----------------|----|
|-------------|-----------|-------------|-----4-----------|----|
|-------------|-3-3-3-3-3-|-------------|---3---3-----3---|----|
|---2---2-3-2-|-1-1-1-1-1-|---2---2-3-2-|-1---------3-----|----|
|-------------|-----------|-------------|---------1-----0-|----|
|-3---3-------|-----------|-3---3-------|-----------------|----|


|-------------|-----------|-------------|-----------------|----|
|-------------|-----------|-------------|-----4-----------|----|
|-------------|-3-3-3-3-3-|-------------|---3---3-----3---|----|
|---2---2-3-2-|-1-1-1-1-1-|---2---2-3-2-|-1---------3-----|----|
|-------------|-----------|-------------|---------1-----1|----|
|-3---3-------|-----------|-3---3-------|-----------------|----|


Guit.I,II
|------------|--------------|-------------|---------------|----|
|------------|--------------|-------------|---------------|----|
|------------|--------------|-------------|---------------|----|
|----5---5-6-|----5---5-6---|-----5---5-6-|-----5---5-6---|----|
|-3----3-----|-3----3-----3S|=6-6---6-----|-6-6---6-----6-|----|
|------------|--------------|-------------|---------------|----|


|-------------|---------------|-------------|-------------------|----|
|-------------|---------------|-------------|-------------------|----|
|-------------|---------------|-------------|-------------------|----|
|-----5---5-6-|-----5---5-6---|-----5---5-6-|-----5---6-5h6p5---|----|
|-3-3---3-----|-3-3---3-----3-|-6-6---6-----|-6-6---6---------6-|----|
|-------------|---------------|-------------|-------------------|----|


|-----------|-------------|------------|-------------|-----------------|----|
|-----------|-------------|------------|-------------|-----------------|----|
|-----------|-------------|------------|-------------|-----------------|----|
|-----6---6-|-----8---6---|-----5---6--|-----5---6---|-5-5-5-5-5-5-5-5-|-5&-|
|-5-5---5---|-5-5---5---5-|-4-4---4----|-4-4---4---4-|-3-3-3-3-3-3-3-3-|-3&-|
|-----------|-------------|------------|-------------|-----------------|----|




North Berwick Witch Trials tab - Cathedral akoru
North Berwick Witch Trials tab - Cathedral notaları,
North Berwick Witch Trials tab - Cathedral tablar bas tablar akord akor oku



iletisim  Reklam  Gizlilik sözlesmesi
Diger sitelerimize baktiniz mi ? Radyo Dinle - milli piyango sonuclari - 2017 yeni yil mesajlari - Güzel sözler Sohbet 2003- 2016 Canim.net Her hakki saklidir.