Güzel sözler | Fıkra | Hikaye | Şiir - Şair| Şarkı sözleri | Türküler | Sohbet odaları | Rüya | Sağlık | Biyografi | islam | Güzeller | Paylaş


Canim.net
Akorlar
Akor Ekle
Şarkı sözleri
Yabancı şarkı sözleri
Çeviriler
Türkü
A  B  C  Ç  D  E  F  G  Ğ  H  I  İ  J  K  L  M  N  O  Ö  P  R  S  Ş  T  U  Ü  V  Y  Z 



No Love Lost tab - Carcass



Chorus Riff

B |-----------------------------------|
Gb|-----------------------------------|
D |-----------------------------------|
A |------------------------------<7>--|
E |-2-h4-4-4-4------------5-----7---7-|
B |-0-h2-2-2-2---&8-5---7---7-8-------|


Riff 1

B |------------------------------------------------------------------------
Gb|------------------------------------------------------------------------
D |------------------------------------------------------------------------
A |------------------------------------------------------------------------
E |2-&4-4-4-4-2-2-&5-5-5-5-2-2-&4-4-4-4-&5-5-&7-7-&8-8-5-2-&4-4-4-4-2-2
B |0-h2-2-2-2-p0-0-h3-3-3-3-p0-0-h2-2-2-2-&3-3-&5-5-&6-6-3-0-h2-2-2-2-p0-0
continued
-----------------------------------------|
-----------------------------------------|
-----------------------------------------|
-----------------------------------------|
-&3-3-3-3-2-2-&4-4-4-4-&5-5-&7-7-&8-8-5|
-h1-1-1-1-p0-0-h2-2-2-2-&3-3-&5-5-&6-6-3|


Riff 2a

B |---------------------------------------------------------------------
Gb|---------------------------------------------------------------------
D |---------------------------------------------------------------------
A |---------7-6-8-------7-6-8---------------6-5-7--------6-5-7------
E |---------5-4-6-------5-4-6---------------4-3-5--------4-3-5------
B |-4-4-4-4--------4-4-4--------4-4-4-3-3-3-3---------3-3-3--------3-3-3
continued
-------------------------------------------------------------------|
-------------------------------------------------------------------|
-------------------------------------------------------------------|
---------7-6-8-------7-6-8---------------6-7---------------------|
---------5-4-6-------5-4-6---------------4-5-----7-7-----4-3-----|
-6-6-6-6--------6-6-6--------6-6-6-5-5-5-5---------5-4-----2-1-----|


Riff 2b

B |-----------------------------------------------------------------------
Gb|-----------------------------------------------------------------------
D |-----------------------------------------------------------------------
A |-----------------------------------------------------------------------
E |-----------------------------------------------------------------------
B |4-4-4-4-*-----4-4-4-3-3-3-3-*-----3-3-3-*-----3-3-3-*-----3-3-3-6-6-6-6
continued
----------------------------------------------|
----------------------------------------------|
----------------------------------------------|
----------------------------------------------|
--------------------------------------4-4-----|
-*-----6-6-6-5-5-5-5-*----------------2-1-----|


Riff 3a

B |-----------------------------------------------------------------------
Gb|-----------------------------------------------------------------------
D |-----------------------------------------------------------------------
A |-----------------------------------------------------------------------
E |-2-h4-4-4-4---4-4-4-2-*-2-*-2-*-2-2-h5-5-5-5-------------5-----3---2-h4
B |-0-h2-2-2-2---2-2-2-0-*-0-*-0-*-0-0-h3-3-3-3---3-3-3-5-6-----6-1---0-h2
continued
-------------------------------------------------------------|
-------------------------------------------------------------|
-------------------------------------------------------------|
-------------------------------------------------------------|
-4-4-4---4-4-4-2-*-2-*-2-*-2-2-h5-5-5-5---5-5----------------|
-2-2-2---2-2-2-0-*-0-*-0-*-0-0-h3-3-3-3---3-3-0-0-0-0-0-0-0-0|


Riff 3b

B |-----------------------------------------------------------------------
Gb|-----------------------------------------------------------------------
D |-----------------------------------------------------------------------
A |-----------------------------------------------------------------------
E |-2-h4-4-4-4---4-4-4-2-*-2-*-2-*-2-2-h5-5-5-5---5-5-5-2-*-2-*-2-*-2-2-h4
B |-0-h2-2-2-2---2-2-2-0-*-0-*-0-*-0-0-h3-3-3-3---3-3-3-0-*-0-*-0-*-0-0-h2
continued
------------------------------------------------------------------------
------------------------------------------------------------------------
------------------------------------------------------------------------
------------------------------------------------------------------------
-4-4-4---4-4-4-2-*-2-*-2-*-2-2-h5-5-5-5---5-5-5-2-*-2-*-2-*-2-2-h4-4-4-4
-2-2-2---2-2-2-0-*-0-*-0-*-0-0-h3-3-3-3---3-3-3-0-*-0-*-0-*-0-0-h2-2-2-2
continued
--------------------------------------------------------|
--------------------------------------------------------|
--------------------------------------------------------|
--------------------------------------------------------|
---4-4-4-2-*-2-*-2-*-2-2-h5-5-5-5---5-5-------5-----3---|
---2-2-2-0-*-0-*-0-*-0-0-h3-3-3-3---3-3-3-5-6-----6-1---|


End

B |-----------|
Gb|-----------|
D |-----------|
A |-----------|
E |2-4-4-4-4-*|
B |0-2-2-2-2-*|


Song Structure:

Chorus Riff (x4)
Riff 1 (x3)
Riff 2a (x1)
Riff 1 (x1)
Riff 2a (x1)
Chorus Riff (x4)
Solo <--dont have, but I hope to figure it out later
Riff 3a (x1)
Riff 3b (x2)
Riff 2b (x1)
Chorus Riff (x2)
End (x1)




No Love Lost tab - Carcass akoru
No Love Lost tab - Carcass notaları,
No Love Lost tab - Carcass tablar bas tablar akord akor oku



iletisim  Reklam  Gizlilik sözlesmesi
Diger sitelerimize baktiniz mi ? Radyo Dinle - milli piyango sonuclari - 2017 yeni yil mesajlari - Güzel sözler Sohbet 2003- 2016 Canim.net Her hakki saklidir.