Güzel sözler | Fıkra | Hikaye | Şiir - Şair| Şarkı sözleri | Türküler | Sohbet odaları | Rüya | Sağlık | Biyografi | islam | Güzeller | Paylaş


Canim.net
Akorlar
Akor Ekle
Şarkı sözleri
Yabancı şarkı sözleri
Çeviriler
Türkü
A  B  C  Ç  D  E  F  G  Ğ  H  I  İ  J  K  L  M  N  O  Ö  P  R  S  Ş  T  U  Ü  V  Y  Z 



No Leaf Claver - Metallica



Em A&E Bm A&E=20
Eb--7---7-----8----8------7---7-----8-----8----|
Bb--8---8-----10---10-----7---7-----10----10---|
Gb----9---9------9----9-----8---8------9----9--|
Db---------------------------------------------|
Ab---------------------------------------------|
Eb---------------------------------------------|

Em A&E Bm A&E=20
Eb--7---7-----8----8------7---7----------------------|
Bb--8---8-----10---10-----7---7--------10-------10---|
Gb----9---9------9----9-----8---8--8&9------8&9------|
Db---------------------------------------------------|
Ab---------------------------------------------------|
Eb---------------------------------------------------|

Em A&E Bm A&E=20
Eb--7---7-----8----8------7---7------------10--8------|
Bb--8---8-----10---10-----7---7--------10---------10--|
Gb----9---9------9----9-----8---8--8&9----------------|
Db----------------------------------------------------|
Ab----------------------------------------------------|
Eb----------------------------------------------------|

Em A&E Bm A&E=20
Eb--7---7-----8----8------7---7------------8------|
Bb--8---8-----10---10-----7---7--------10-----10--|
Gb----9---9------9----9-----8---8--8&9------------|
Db------------------------------------------------|
Ab------------------------------------------------|
Eb------------------------------------------------|

Eb-----------------------------|
Bb-----------------------------|
Gb-----------------------------|
Db-----------------------------|
Ab--2~--3~2~---2--2---2~--3~2~-|
Eb-0---0-------0000000---0-----|


Verse
A5 B5
And ... feels right ... time
C5 B5
On ... course with ... time
A5 B5 G5 C5 B5
Pays ... the distand ... new ... his head with wonder

Chorus
Play first part of intro part one then these chords:

E5 Am B? Am
Then it comes ... the soothing ... the end ... tunnel
Em Am
Is ... a freight ... way




No Leaf Claver - Metallica akoru
No Leaf Claver - Metallica notaları,
No Leaf Claver - Metallica tablar bas tablar akord akor oku



iletisim  Reklam  Gizlilik sözlesmesi
Diger sitelerimize baktiniz mi ? Radyo Dinle - milli piyango sonuclari - 2017 yeni yil mesajlari - Güzel sözler Sohbet 2003- 2016 Canim.net Her hakki saklidir.