Güzel sözler | Fıkra | Hikaye | Şiir - Şair| Şarkı sözleri | Türküler | Sohbet odaları | Rüya | Sağlık | Biyografi | islam | Güzeller | Paylaş


Canim.net
Akorlar
Akor Ekle
Şarkı sözleri
Yabancı şarkı sözleri
Çeviriler
Türkü
A  B  C  Ç  D  E  F  G  Ğ  H  I  İ  J  K  L  M  N  O  Ö  P  R  S  Ş  T  U  Ü  V  Y  Z 



Nereye Kadartab - Şebnem Ferah



E5 C5 D5
e|-- e|-- e|--
b|-- b|-- b|--
g|-9 g|-5 g|-7
d|-9 d|-5 d|-7
a|-7 a|-3 a|-5
e|-- e|-- e|--

Riff1:
e|----------------|----------
b|----------------|----------
g|----------------|----------
d|----------------|----------
a|------------7---|-7--------
e|--------0-0---0-|---0-0----
^^^^^^^^^^^^^^(çok dist. ile)

Intro:
e|--------7------------8--7---|-------7------------8--7---|
b|----------------------------|-----8---------------------|
g|-----9------------9-------9-|---9-------------9-------9-|
d|--9--------9--10------------|-9--------9--10------------|
b|----------------------------|---------------------------|
e|----------------------------|---------------------------|


C Em Riff1
Hiç olmaz sandigim...
C Em Riff1
Her sey birdenbire oldu
C Am
Daha ne oluyor... derken
C D Em
Beni de hayat her yerimden vurdu...

D
Günlerdir uykum yok
D
Hayat buysa artik gücüm yok


Nakarat:
E5 C5
Daha kaç kez vurulmam
E5 C5
Nereye kadar güçlü olmam
E5 C5
Daha ne kadar yaralanmam
D5 C5
gerek hayatta
E5 C5
Daha ne kadar gücüm var
E5 C5
Kaybettigim seyler var
E5 C5
Daha ne kadar borcum var
D5 C5
benim hayata...


Ve [3:33]

e|-------7----6-------------|
b|-----8------------10--8---|
g|---9------9----9--------9-|
d|-9------------------------| 4 defa
a|--------------------------|
e|--------------------------|




Nereye Kadartab - Şebnem Ferah akoru
Nereye Kadartab - Şebnem Ferah notaları,
Nereye Kadartab - Şebnem Ferah tablar bas tablar akord akor oku



iletisim  Reklam  Gizlilik sözlesmesi
Diger sitelerimize baktiniz mi ? Radyo Dinle - milli piyango sonuclari - 2017 yeni yil mesajlari - Güzel sözler Sohbet 2003- 2016 Canim.net Her hakki saklidir.