Güzel sözler | Fıkra | Hikaye | Şiir - Şair| Şarkı sözleri | Türküler | Sohbet odaları | Rüya | Sağlık | Biyografi | islam | Güzeller | Paylaş


Canim.net
Akorlar
Akor Ekle
Şarkı sözleri
Yabancı şarkı sözleri
Çeviriler
Türkü
A  B  C  Ç  D  E  F  G  Ğ  H  I  İ  J  K  L  M  N  O  Ö  P  R  S  Ş  T  U  Ü  V  Y  Z 



Nefretim Kederimden Tab - Buz



E&F F&G G&F F E
e----------------------I
B----------------------I
G----------------------I İntroda burayı sureklı tekrarlıyosunuz
D--2&3--3&5--5&3--3--2-I Burası X olsun
A--2&3--3&5--5&3--3--2-I
E--0&1--1&3--3&1--1--0-I


Her mısradan sonra 1 kez X calınıyo,
Aynı anda 2.gitar;

e-12--10--------------I
B---12---13--12&13-12-I
G---------------------I
D---------------------I
A---------------------I
E---------------------I


Günah dolu bu vücut X
Neden doymak bilmez? X
Aldatmak işkence X
Neden ölüm gelmez? X






B B&C C&D D&C C&B B B&C C&D D&E
e-----------------------------------I------------------------------I
B-----------------------------------I------------------------------I
G-4-----------------4&5-5&7-7&5-5&4-I-4----------------4&5-5&7-7&9-Iburası Y
D-4-----------------4&5-5&7-7&5-5&4-I-4----------------4&5-5&7-7&9-Ibolumu
A-2-----------------2&3-3&5-5&3-3&2-I-2----------------2&3-3&5-5&7-I
E-----------------------------------I------------------------------I
elim kana bulanmış ben ondan kaçtıkça


nakarat bolumu 1.gıtar;
e----------I
B----------I
G----------I
D-7-5-3-2--I
A-7-5-3-2--I
E-5-3-1-0--I

nakarat bolumu 2.gıtar;

e---------------------------------------10&12-12-------I
B-----------------------------------------------12^-10-I
G-----------7------------------------------------------I
D--7---9-10-------7-9-10-------------------------------I
A-------------10---------8--8&10-10-8-7----------------I
E------------------------------------------------------I

nakarat sonrası; 1.gıtar burada sueklı X calıyo;
e-------------------------------I-----------------------------------12----I
B-------------------------------I----------------------5&12-12-12-12--12^-I
G----------7--------------------I-----------------------------------------I
D--7---9-10------7-9-10---------I-----------------------------------------I
A-------------10--------8--8--7-I------------------8----------------------I
E-------------------------------I-----------------------------------------I


Bu son olsun yüreğim huzur bulsun
DAha fazla nefret edemem kendimden
yarınları öldürdüm..
nefretim kederimden..

sonra tekrar bastan calınıyo ama y calınmıyo
soloda bıraz degısıklık var


e--------------12--------------------------I
B-5&12-12-12-12--12-13-10------------------I
G-------------------------12^-10-9---------I
D----------------------------------12-10-9-I
A------------------------------------------I
E------------------------------------------I

e--------------12------------------I
B-5&12-12-12-12--12-13-10----------I
G------------------------12^-10-9^-I
D----------------------------------I
A----------------------------------I
E----------------------------------I




Nefretim Kederimden Tab - Buz akoru
Nefretim Kederimden Tab - Buz notaları,
Nefretim Kederimden Tab - Buz tablar bas tablar akord akor oku



iletisim  Reklam  Gizlilik sözlesmesi
Diger sitelerimize baktiniz mi ? Radyo Dinle - milli piyango sonuclari - 2017 yeni yil mesajlari - Güzel sözler Sohbet 2003- 2016 Canim.net Her hakki saklidir.