Güzel sözler | Fıkra | Hikaye | Şiir - Şair| Şarkı sözleri | Türküler | Sohbet odaları | Rüya | Sağlık | Biyografi | islam | Güzeller | Paylaş


Canim.net
Akorlar
Akor Ekle
Şarkı sözleri
Yabancı şarkı sözleri
Çeviriler
Türkü
A  B  C  Ç  D  E  F  G  Ğ  H  I  İ  J  K  L  M  N  O  Ö  P  R  S  Ş  T  U  Ü  V  Y  Z 



Necrosadistic Warning tab - Cannibal Corpse



. - palm mute & - slide up to
- slide down to ~ - vibrato
h - hammer on b - Bend
p - pull off Suffixes for bend
t - tap f - full bend h - half bend
ph - pinched harmonic q - quarter bend t - tap bend
* - see comment ^ - Hold bend r release bend
x - Stuccatto ~ - vibrato bend
, - slight palm mute () - ghost note, sustained note
" - tremolo note <> - Trill

Tuning 6 half steps down: Bb-Eb-Ab-Db-F-Bb

guitar one = left channel
guitar two = right channel

RIFF 1 (0:00) guitar one
|------------------------------------------------------------------------||
|------------------------------------------------------------------------||
|------------------------------------------------------------------------||
|-6--8--9--------------6--8--9--------------6--8--9--------------6--8--9-||
|-4--6--7--------------4--6--7--------------4--6--7--------------4--6--7-||
|----------4-6-7-4-6-7----------4-6-7-4-6-7----------4-6-7-4-6-7---------||
. . . . . . . . . . . . . . . . . .

RIFF 1 (0:00) guitar two
|---------------------------------------------
|---------------------------------------------
|---------------------------------------------
|-6--8--9--------------6--8--9----------------
|-4--6--7--------------4--6--7----------------
|----------4-6-7-4-6-7----------7-9-10-7-9-10-
. . . . . . . . . . . .

-----------------------------------||
-----------------------------------||
-----------------------------------||
-6--8--9-------------------6--8--9-||
-4--6--7-------------------4--6--7-||
----------10-12-13-10-12-13--------||
. . . . . .

RIFF 2a (0:06) both guitars
|-------------------------------------------------------------------------
|-------------------------------------------------------------------------
|-------------------------------------------------------------------------
|-------------------------------------------------------------------------
|---------4---------6-7-----------4---------6-7-----------4---------6-7---
|-0-4-6-7---0-5-7-8-----6-0-4-6-7---0-5-7-8-----6-0-4-6-7---0-5-7-8-----6-
. . . . . . . . . . . . . . . . . . . . . . . . . . .

-------------------------||
-------------------------||
-------------------------||
-------------------------||
-------7---------------1-||
-0-8-9---0-8-6-5-0-2-3---||
. . . . . . . . . .

RIFF 3 (0:12) both guitars
|-------------------------------------------------------------------------------
|-------------------------------------------------------------------------------
|-------------------------------------------------------------------------------
|-------------------------------------------------------------------------------
|7777667777777777667777771010101099------------101010109977776677777777776677777
|----------------------------------999999999988---------------------------------

ending guitar one
---------------------------||
---------------------------||
-----------------------9---||
------------------11-8---8-||
-7-5-4-9-6-10-7-6----------||
---------------------------||
. . . . . . .

ending guitar two
-------------------------------||
-------------------------------||
-------------------------------||
-------------------------11----||
-------------------13-10----10-||
-9-7-6-11-8-12-9-8-------------||
. . . . . . .

RIFF 2b (0:18) both guitars
|-------------------------------------------------------------------------
|-------------------------------------------------------------------------
|-------------------------------------------------------------------------
|-------------------------------------------------------------------------
|---------4---------6-7-----------4---------6-7-----------4---------6-7---
|-0-4-6-7---0-5-7-8-----6-0-4-6-7---0-5-7-8-----6-0-4-6-7---0-5-7-8-----6-
. . . . . . . . . . . . . . . . . . . . . . . . . . .

-------------------------|
-------------------------|
-------------------------|
-------------------------|
-------1---------------7-|
-0-2-3---0-8-6-5-0-8-9---|
. . . . . . . . . .

continue with RIFF 2a & both guitars
|-------------------------------------------------------------------------
|-------------------------------------------------------------------------
|-------------------------------------------------------------------------
|-------------------------------------------------------------------------
|---------4---------6-7-----------4---------6-7-----------4---------6-7---
|-0-4-6-7---0-5-7-8-----6-0-4-6-7---0-5-7-8-----6-0-4-6-7---0-5-7-8-----6-
. . . . . . . . . . . . . . . . . . . . . . . . . . .

-------------------------||
-------------------------||
-------------------------||
-------------------------||
-------7---------------1-||
-0-8-9---0-8-6-5-0-2-3---||
. . . . . . . . . .

RIFF 3 (0:31) both guitars
|-------------------------------------------------------------------------------
|-------------------------------------------------------------------------------
|-------------------------------------------------------------------------------
|-------------------------------------------------------------------------------
|7777667777777777667777771010101099------------101010109977776677777777776677777
|----------------------------------999999999988---------------------------------

ending guitar one
-------------------------
-------------------------
-----------------------9-
------------------11-8---
-7-5-4-9-6-10-7-6--------
-------------------------
. . . . . . .

ending guitar two
----------------------------
----------------------------
----------------------------
-------------------------11-
-------------------13-10----
-9-7-6-11-8-12-9-8----------
. . . . . . .

-------------------------------------------------------------------------------
-------------------------------------------------------------------------------
-------------------------------------------------------------------------------
-------------------------------------------------------------------------------
7777667777777777667777771010101099------------101010109977776677777777776677777
----------------------------------999999999988---------------------------------

ending guitar one
---------------------------||
---------------------------||
-----------------------9---||
------------------11-8---8-||
-7-5-4-9-6-10-7-6----------||
---------------------------||
. . . . . . .

ending guitar two
-------------------------------||
-------------------------------||
-------------------------------||
-------------------------11----||
-------------------13-10----10-||
-9-7-6-11-8-12-9-8-------------||
. . . . . . .

RIFF 2a (0:44) both guitars
|-------------------------------------------------------------------------
|-------------------------------------------------------------------------
|-------------------------------------------------------------------------
|-------------------------------------------------------------------------
|---------4---------6-7-----------4---------6-7-----------4---------6-7---
|-0-4-6-7---0-5-7-8-----6-0-4-6-7---0-5-7-8-----6-0-4-6-7---0-5-7-8-----6-
. . . . . . . . . . . . . . . . . . . . . . . . . . .

-------------------------|
-------------------------|
-------------------------|
-------------------------|
-------7---------------1-|
-0-8-9---0-8-6-5-0-2-3---|
. . . . . . . . . .

continue with RIFF 2b & both guitars
|-------------------------------------------------------------------------
|-------------------------------------------------------------------------
|-------------------------------------------------------------------------
|-------------------------------------------------------------------------
|---------4---------6-7-----------4---------6-7-----------4---------6-7---
|-0-4-6-7---0-5-7-8-----6-0-4-6-7---0-5-7-8-----6-0-4-6-7---0-5-7-8-----6-
. . . . . . . . . . . . . . . . . . . . . . . . . . .

-------------------------||
-------------------------||
-------------------------||
-------------------------||
-------1---------------7-||
-0-2-3---0-8-6-5-0-8-9---||
. . . . . . . . . .

RIFF 5 (0:56) both guitars
|---------------------------------------------------||
|---------------------------------------------------||
|---------------------------------------------------||
|---------------------------------------------------||
|------------------7--------------------------7---7-||
|-999988886--0-0-0-8-0-0-0-0-999988886--0-0-0-8-0-0-||
. . . . . . . . . . .

again RIFF 2a (1:01)
again RIFF 3 (1:07)
again RIFF 2a + 2b (1:19)

RIFF 5 (1:32) both guitars
|---------------------------------------------------||
|---------------------------------------------------||
|---------------------------------------------------||
|---------------------------------------------------||
|------------------7--------------------------7-----||
|-999988886--0-0-0-8-0-0-0-0-999988886--0-0-0-8-0-0-||
. . . . . . . . . . . .

RIFF 6 (1:49) both guitars
|-------------------------------------------------------------------------------
|-------------------------------------------------------------------------------
|-------------------------------------------------------------------------------
|-------------------6&8-87-------------------6&8-87-------------------6&8-87-
|-7--------5----------------7--------5----------------7--------5----------------
|-8-000000-6-000000-4&6-65-8-000000-6-000000-4&6-65-8-000000-6-000000-4&6-65-
...... ...... ...... ...... ...... ......

-----------------------------------------------||
-----------------------------------------------||
-9999---7777----------5555--3333---------------||
--------------66--88-------------0-------------||
-----5h7----55--55--55----33-----1-------------||
-----------------------------------0-0-0-0-0-0-||
. . . . . .

again RIFF 5 (2:10)

last time...
|---------------------------------------------------||
|---------------------------------------------------||
|---------------------------------------------------||
|---------------------------------------------------||
|------------------7--------------------------7---7-||
|-999988886--0-0-0-8-0-0-0-0-999988886--0-0-0-8-0-0-||
. . . . . . . . . . .

RIFF 2c (2:27) both guitars
|-------------------------------------------------
|-------------------------------------------------
|-------------------------------------------------
|-------------------------------------------------
|---------4---------6-7-----------4---------6-7---
|-0-4-6-7---0-5-7-8-----6-0-4-6-7---0-5-7-8-----6-
. . . . . . . . . . . . . . . . . .

-------------------------------------------------||
-------------------------------------------------||
-------------------------------------------------||
-------------------------------------------------||
---------4---------6-7-----------4---------6-7---||
-0-4-6-7---0-5-7-8-----6-0-4-6-7---0-5-7-8-----6-||
. . . . . . . . . . . . . . . . . .

RIFF 7 (2:33) & rhythm for solo
|----------------------------------------------------------||
|----------------------------------------------------------||
|----------------------------------------------------------||
|----------------------------------------------------------||
|----------------------------------------------------------||
|-33332200666666665566669999993333220066666666556666999900-||

again RIFF 6 (2:48) & rhythm for solo

RIFF 8 (2:57) & rhythm for solo
|-------------------------------||
|-------------------------------||
|-------------------------------||
|-------------------------------||
|-5-------666666-5----------3-3-||
|-6-333333-------6-333333-2-2-2-||
...... ......




Necrosadistic Warning tab - Cannibal Corpse akoru
Necrosadistic Warning tab - Cannibal Corpse notaları,
Necrosadistic Warning tab - Cannibal Corpse tablar bas tablar akord akor oku



iletisim  Reklam  Gizlilik sözlesmesi
Diger sitelerimize baktiniz mi ? Radyo Dinle - milli piyango sonuclari - 2017 yeni yil mesajlari - Güzel sözler Sohbet 2003- 2016 Canim.net Her hakki saklidir.