Güzel sözler | Fıkra | Hikaye | Şiir - Şair| Şarkı sözleri | Türküler | Sohbet odaları | Rüya | Sağlık | Biyografi | islam | Güzeller | Paylaş


Canim.net
Akorlar
Akor Ekle
Şarkı sözleri
Yabancı şarkı sözleri
Çeviriler
Türkü
A  B  C  Ç  D  E  F  G  Ğ  H  I  İ  J  K  L  M  N  O  Ö  P  R  S  Ş  T  U  Ü  V  Y  Z 



Loving You Sunday Morning - Scorpions



Scorpions - Loving You Sunday Morning


[Riff 1]
e|-----------------------------------------|
B|-----------3---5-----3-----4---4-----5~--|
G|-------2-------------------2---2-----2~--|
D|---4-------------------------------------|
A|-----------------------------------------|
E|-----------------------------------------|

[Riff 2]
A A7sus4 D&A A
e|---5-----3-------2---2------------------------|
B|---5-----3-------3---3-----2------------------|
G|---2-----2-------2---2-----2------------------|
D|-----------------0---0-----2--------------2---|
A|---------------------------0-----0---3b---0---|
E|----------------------------------------------|
|
e|----------------------------------------------------|
B|----------------------------------------------------|
G|----------------------------------------------------|
D|----------------------------------------------------|
A|---0--0--0--0--0--0--0--0--0--0--0--0--0--0--0--0---|
E|----------------------------------------------------|

[Riff 3]
A A7sus4 D&A A Asus4 A
e|---5-----3-------2---2--------------------------|
B|---5-----3-------3---3-----2-----2----3----2----|
G|---2-----2-------2---2-----2-----2----2----2----|
D|-----------------0---0-----2-----2----2----2----|
A|---------------------------0-----0----0----0----|
E|------------------------------------------------|
|
e|----------------------------------------------------|
B|----------------------------------------------------|
G|----------------------------------------------------|
D|----------------------------------------------------|
A|---0--0--0--0--0--0--0--0--0--0--0--0--0--0--0--0---|
E|----------------------------------------------------|

[Riff 4]
A A7sus4 D&A A
e|---5-----3---------2---2----------------|
B|---5-----3---------3---3------------2~--|
G|---2-----2---------2---2------------2~--|
D|-------------------0---0------------2~--|
A|------------------------------------0~--|
E|----------------------------------------|
|
e|----------------------------------------|
B|----------------------------------------|
G|----------------------------------------|
D|---------------------------------2--2~--|
A|---0--0--0--0--0--0--0--0--0--0--0--0~--|
E|----------------------------------------|

[Riff 5]
C
e|-----------------------------------------------------------------------|
B|-------1-------3---3-------------1---3-----------------1-------3---3---|
G|-----------0-----------------0-----------0-----------------0-----------|
D|---------------------------------------------2-------------------------|
A|---3---------------------3-------------------------3-------------------|
E|-----------------------------------------------------------------------|
|
e|------------------------------------------------------------------------------|
B|------------------------------------------------------------------------------|
G|---5~---------------------------------------5---5---5~-------------------5----|
D|---5~---------------------------------------5---5---5~-------------------5----|
A|---3~---------------------------------------3---3---3~-------------------3----|
E|------------------------------------------------------------------------------|


[Riff 6]
e|---5-----3--------------------|
B|---5-----3--------------------|
G|---2-----2---------------4~---|
D|-------------------------3~---|
A|------------------------------|
E|------------------------------|
|
e|------------------------------|
B|------------------------------|
G|-------------------------4~---|
D|--2--2--2--2--2--2--2----3~---|
A|--0--0--0--0--0--0--0---------|
E|------------------------------|

[Riff 7]
G7&A
e|-------------------|
B|---------------3---|
G|-----------4-------|
D|-------3-----------|
A|---0---------------|
E|-------------------|

[Riff 8]
e|------------------------------------------------------|
B|----10------------------------------------------------|
G|----9------7~----(7)-----4---4---4---4---4---4---4---|
D|----7------6~----(6)-----3---3---3---3---3---3---3---|
A|----0-------------------------------------------------|
E|------------------------------------------------------|

[Riff 9]
e|-----------------|
B|----10-----------|
G|----9------7~----|
D|----7------6~----|
A|----0------------|
E|-----------------|

[Riff 10]
e|---------------------------------|
B|---------------------------------|
G|---------------------------------|
D|---------------2-----------------|
A|---2---2---2-------5---3---2-----|
E|---------------------------------|

[Riff 11]
e|-------------------------------------------------|
B|-------------------------------------------------|
G|-------------------------------------------------|
D|---2-----2---------------2-----2-----------------|
A|---0-----0-----0---3-----0-----0----&5---3---2---|
E|-------------------------------------------------|

[Fill 1]
e|----------------------------------------------------------------------|
B|----------------------------------------------------------------------|
G|---4b6---4---2b---4---2b4---------------------------------------------|
D|----------------------------2-----------------------------------------|
A|--------------------------------4---2b4---2---0---0---0---0---0---0---|
E|----------------------------------------------------------------------|
SH SH SH SH SH PH PH PH PH PH PH PH PH PH (SH = semi-harmonics)
(PH = pitch-harmonics)

[Fill 2]
e|----------------------------------------------------------|
B|------------------8b10---5--------------------------------|
G|---7b9r7---7p5---------------8---7---5--------------------|
D|-----------------------------------------7---5------------|
A|-------------------------------------------------0---3~---|
E|----------------------------------------------------------|
PH SH SH SH SH SH SH SH SH
|----4x----|

[Fill 3]
e|------------------------------------5------------5-------------------------|
B|---------------------------------------------------------------------------|
G|---4b6r4---4p2---4---4b6---4---2-------2--2--2------2--2~------------------|
D|------------------------------------------------------------4p2------------|
A|-----------------------------------------------------------------3--2--0---|
E|---------------------------------------------------------------------------|

[Fill 4]
e|---8------------------------------------------------|
B|---8---6b8~-----------------------------------------|
G|---------------7b9r7---7p5---7---7b9---5---7---5~---|
D|----------------------------------------------------|
A|----------------------------------------------------|
E|----------------------------------------------------|

[Fill 5]
e|------------------------------------------|
B|---5----3-----2---3---2---3---2-------2---|
G|---5b---4---------4---2---4---2-------2---|
D|----------------------------------4---2---|
A|------------------------------------------|
E|------------------------------------------|

[Fill 6]
e|-------------------------5----------------------|
B|------------------------------------5-----------|
G|---7b9r7---7b---8b10---------5br----------------|
D|----------------------------------------4-------|
A|--------------------------------------------0---|
E|------------------------------------------------|







Loving You Sunday Morning - Scorpions akoru
Loving You Sunday Morning - Scorpions notaları,
Loving You Sunday Morning - Scorpions tablar bas tablar akord akor oku



iletisim  Reklam  Gizlilik sözlesmesi
Diger sitelerimize baktiniz mi ? Radyo Dinle - milli piyango sonuclari - 2017 yeni yil mesajlari - Güzel sözler Sohbet 2003- 2016 Canim.net Her hakki saklidir.