Güzel sözler | Fıkra | Hikaye | Şiir - Şair| Şarkı sözleri | Türküler | Sohbet odaları | Rüya | Sağlık | Biyografi | islam | Güzeller | Paylaş


Canim.net
Akorlar
Akor Ekle
Şarkı sözleri
Yabancı şarkı sözleri
Çeviriler
Türkü
A  B  C  Ç  D  E  F  G  Ğ  H  I  İ  J  K  L  M  N  O  Ö  P  R  S  Ş  T  U  Ü  V  Y  Z 



Lounge Act - Nirvana



LOUNGE ACT
Standard tuning

VERSES

B5 G5 C5
--------------I-----------------I
--------------I-----------------I
4--X-4--4-4-0-I--------5--5-5---I
4--X-4--4-4-0-I-5-5-X--5--5-5-0-I
2--X-2--2-2-0-I-5-5-X--3--3-3-0-I
------------0-I-3-3-X---------0-I

CHORUS

E5 A5 D G5
0-------------I-2-2--3--3-3---I
0-------------I-3-3--3--3-3---I
X----2--2-2-0-I-2-2--0--0-0-0-I
2----2--2-2-0-I-0-0--0--0-0-0-I
2----0--0-0-0-I------X--X-X-0-I
0-----------0-I------3--3-3-0-I

POST-CHORUS

A5 G# G
------I-------I
------I-------I
2-----I-----0-I
2-----I---0-0-I
0-----I--3--2-I
------I-4---3-I






Lounge Act - Nirvana akoru
Lounge Act - Nirvana notaları,
Lounge Act - Nirvana tablar bas tablar akord akor oku



iletisim  Reklam  Gizlilik sözlesmesi
Diger sitelerimize baktiniz mi ? Radyo Dinle - milli piyango sonuclari - 2017 yeni yil mesajlari - Güzel sözler Sohbet 2003- 2016 Canim.net Her hakki saklidir.