Güzel sözler | Fıkra | Hikaye | Şiir - Şair| Şarkı sözleri | Türküler | Sohbet odaları | Rüya | Sağlık | Biyografi | islam | Güzeller | Paylaş


Canim.net
Akorlar
Akor Ekle
Şarkı sözleri
Yabancı şarkı sözleri
Çeviriler
Türkü
A  B  C  Ç  D  E  F  G  Ğ  H  I  İ  J  K  L  M  N  O  Ö  P  R  S  Ş  T  U  Ü  V  Y  Z 



Losing My Religion tab - R.E.M



GUITAR 1 (Mandolin)
F Fadd9 D5
+ + + + + + + + + +
e:-10-12-10----|-8-----8--8--8--10----8--|----8--------10-12-10----|
B:----------10-|-10----10-10-10-10----10-|----10----10----------10-|
G:-------------|-------------------------|-------------------------|
D:-------------|-------------------------|-------------------------|
A:-------------|-------------------------|-------------------------|
E:-------------|-------------------------|-------------------------|

GUITAR 2 (Acoustic)
e:-------------|-1-----1--1--1--3-----1--|----1--------------------|
B:-------------|-1-----1--1--1--1-----1--|----1--------3-----------|
G:-------------|-2-----2--2--2--2-----2--|----2--------2-----------|
D:-------------|-3-----3--3--3--3-----3--|----3--------0-----------|
A:-------------|-------------------------|-------------------------|
E:-------------|-------------------------|-------------------------|



Am C&B C D5
+ + + + + + + +
e:-8-----8--8--8--10----8--|----8--------10-12-10----|
B:-10----10-10-10-10----10-|----10----10----------10-|
G:-------------------------|-------------------------|
D:-------------------------|-------------------------|
A:-------------------------|-------------------------|
E:-------------------------|-------------------------|

e:-0-----0--0--0-----0--0--|-0-----0--0--------------|
B:-1-----1--1--1-----1--1--|-1-----1--1--3-----------|
G:-2-----2--2--0-----0--0--|-0-----0--0--2-----------|
D:-2-----2--2--x-----x--x--|-2-----2--2--0-----------|
A:-0-----0--0--2-----2--2--|-3-----3--3--------------|
E:-------------------------|-------------------------|



F Fadd9 D5
+ + + + + + + +
e:-8-----8--8--8--10----8--|----8--------10-12-10----|
B:-10----10-10-10-10----10-|----10----10----------10-|
G:-------------------------|-------------------------|
D:-------------------------|-------------------------|
A:-------------------------|-------------------------|
E:-------------------------|-------------------------|

e:-1-----1--1--1--3-----1--|----1--------------------|
B:-1-----1--1--1--1-----1--|----1--------3-----------|
G:-2-----2--2--2--2-----2--|----2--------2-----------|
D:-3-----3--3--3--3-----3--|----3--------0-----------|
A:-------------------------|-------------------------|
E:-------------------------|-------------------------|


A________________ life
Am G
+ + + + + + + +
e:-8-----8-----8--8-----7--|-------------------------|
B:-10----10----10-10----8--|-------------------------|
G:-------------------------|-------------------------|
D:-------------------------|-------------------------|
A:-------------------------|-------------------------|
E:-------------------------|-------------------------|

e:-0-----0-----0--0----^3--|-------------------------|
B:-1-----1-----1--1----^0--|-------------------------|
G:-2-----2-----2--2----^0--|-------------------------|
D:-2-----2-----2--2----^0--|-------------------------|
A:-0-----0-----0--0----^2--|-------------------------|
E:---------------------^3--|-------------------------|


VERSE:

GUITAR 2
life is bigger its bigger than you and you are
Am Em
+ + + + + + + + + + + + + + + +
e:-0---0---0-0---0-|---0-0---0-0-----|-^0---0---0-0---0-|---0-0---0-0-----|
B:-1---1---0-1---1-|---1-1---0-1-----|-^0---0---0-0---0-|---0-0---0-0-----|
G:-2---2---2-2---2-|---2-2---2-2-----|-^0---0---0-0---0-|---0-0---0-0-----|
D:-2---2---2-2---2-|---2-2---2-2-----|-^2---2---2-2---2-|---2-2---2-2-----|
A:-0---0---0-0---0-|---0-0---0-0-----|-^2---2---2-2---2-|---2-2---2-2-----|
E:-----------------|-----------------|-^0---0---0-0---0-|---0-0---0-0-----|


not me the lengths that I will go to the distance in your
Am Em
+ + + + + + + + + + + + + + + +
e:-0---0---0-0---0-|---0-0---0-0-----|-^0---0---0-0---0-|---0-0---0-0-----|
B:-1---1---0-1---1-|---1-1---0-1-----|-^0---0---0-0---0-|---0-0---0-0-----|
G:-2---2---2-2---2-|---2-2---2-2-----|-^0---0---0-0---0-|---0-0---0-0-----|
D:-2---2---2-2---2-|---2-2---2-2-----|-^2---2---2-2---2-|---2-2---2-2-----|
A:-0---0---0-0---0-|---0-0---0-0-----|-^2---2---2-2---2-|---2-2---2-2-----|
E:-----------------|-----------------|-^0---0---0-0---0-|---0-0---0-0-----|


eyes Oh no Ive said too
Am Em
+ + + + + + + + + + + + + + + +
e:-0---0---0-0---0-|---0-0---0-0-----|-^0---0---0-0---0-|---0-0---0-0-----|
B:-1---1---0-1---1-|---1-1---0-1-----|-^0---0---0-0---0-|---0-0---0-0-----|
G:-2---2---2-2---2-|---2-2---2-2-----|-^0---0---0-0---0-|---0-0---0-0-----|
D:-2---2---2-2---2-|---2-2---2-2-----|-^2---2---2-2---2-|---2-2---2-2-----|
A:-0---0---0-0---0-|---0-0---0-0-----|-^2---2---2-2---2-|---2-2---2-2-----|
E:-----------------|-----------------|-^0---0---0-0---0-|---0-0---0-0-----|


much I said it all
Dm G
+ + + + + + + + + + + + + + + +
e:-1-----1-1-----1-|---1-1---1---1---|-3-----3-3-----3-|-----------------|
B:-3-----3-3-----3-|---3-3---3---3---|-0-----0-0-----0-|-----------------|
G:-2-----2-2-----2-|---2-2---2---2---|-0-----0-0-----0-|-----------------|
D:-0-----0-0-----0-|---0-0---0---0---|-0-----0-0-----0-|-----------------|
A:-----------------|-----------------|-2-----2-2-----2-|-----------------|
E:-----------------|-----------------|-3-----3-3-----3-|-----------------|


This is the interlude:

GUITAR 1
A5 D5 Am A5
+ + + + + + + +
e:-12-12-12-10----10-10-10-|-8--8--8-----------------|
B:-10-10-10-10----10-10-10-|-10-10-10-10----10-10-10-|
G:-------------------------|-------------------------|
D:-------------------------|-------------------------|
A:-------------------------|-------------------------|
E:-------------------------|-------------------------|


A5 D5 Am A5
+ + + + + + + +
e:-12-12-12-10----10-10-10-|-8--8--8-----------------|
B:-10-10-10-10----10-10-10-|-10-10-10-10----10-10-10-|
G:-------------------------|-------------------------|
D:-------------------------|-------------------------|
A:-------------------------|-------------------------|
E:-------------------------|-------------------------|


That was just a dream
A5 D5 Am A5
+ + + + + + + +
e:-12-12-12-10----10-10-10-|-8--8--8-----------------|
B:-10-10-10-10----10-10-10-|-10-10-10-10----10-10-10-|
G:-------------------------|-------------------------|
D:-------------------------|-------------------------|
A:-------------------------|-------------------------|
E:-------------------------|-------------------------|


That was just a dream thats me in the corner
A5 D5 Am A5
+ + + + + + + +
e:-12-12-12-10----10-10-10-|-8--8--8-----------------|
B:-10-10-10-10----10-10-10-|-10-10-10-10-------------|
G:-------------------------|-------------------------|
D:-------------------------|-------------------------|
A:-------------------------|-------------------------|
E:-------------------------|-------------------------|


This is the ending:

GUITAR 1
A5
+ + + + + + + + + + + +
e:-12-12-12-12-12-12-12-12-|-12-12-12-12-12-12-12-12-|-12-12-12-12-12-12-12-12-|
B:-10-10-10-10-10-10-10-10-|-10-10-10-10-10-10-10-10-|-10-10-10-10-10-10-10-10-|
G:-------------------------|-------------------------|-------------------------|
D:-------------------------|-------------------------|-------------------------|
A:-------------------------|-------------------------|-------------------------|
E:-------------------------|-------------------------|-------------------------|

A5
+ + + + + + + + + + + +
e:-12-12-12-12-12-12-12-12-|-12-12-12-12-12-12-12-12-|-12-10-8-----10-8-----8-|
B:-10-10-10-10-10-10-10-10-|-10-10-10-10-10-10-10-10-|-10-10-10-10-------10---|
G:-------------------------|-------------------------|------------------------|
D:-------------------------|-------------------------|------------------------|
A:-------------------------|-------------------------|------------------------|
E:-------------------------|-------------------------|------------------------|


+ + + +
e:-----------------|
B:-10--------------|
G:-----------------|
D:-----------------|
A:-----------------|
E:-----------------|




Losing My Religion tab - R.E.M akoru
Losing My Religion tab - R.E.M notaları,
Losing My Religion tab - R.E.M tablar bas tablar akord akor oku



iletisim  Reklam  Gizlilik sözlesmesi
Diger sitelerimize baktiniz mi ? Radyo Dinle - milli piyango sonuclari - 2017 yeni yil mesajlari - Güzel sözler Sohbet 2003- 2016 Canim.net Her hakki saklidir.