Güzel sözler | Fıkra | Hikaye | Şiir - Şair| Şarkı sözleri | Türküler | Sohbet odaları | Rüya | Sağlık | Biyografi | islam | Güzeller | Paylaş


Canim.net
Akorlar
Akor Ekle
Şarkı sözleri
Yabancı şarkı sözleri
Çeviriler
Türkü
A  B  C  Ç  D  E  F  G  Ğ  H  I  İ  J  K  L  M  N  O  Ö  P  R  S  Ş  T  U  Ü  V  Y  Z 



London Loves - Blur



Intro: Guitar out&Keyboard intro
4x
|----------------|
|----------------|
|----------------|
|----------------|
|----------------|
|----------------|

Verse:
G F
Riff A-----------------------------------------------|
|------3----&5-5-5-5-5----|------3--------------------|
|------3----&6-6-6-6-6----|------3--------------------|
|------4----&5-5-5-5-5----|------4--------------------|
|-5-----------------------|-5-------------------------|
|-5-----------------------|-5-------------------------|
|-3-----------------------|-3-------------------------|
| Guit. 1*
|-------------------------|---------------------------|
|-------------------------|---------------------------|
|-------------------------|---------------------------|
|-------------------------|----------7-8-7-0-2-3-2-0--|
|-------------------------|---------------------------|
|-------------------------|---------------------------|
Guit. 2* light P.M. -------------------|

*Although, on record, these parts are played by two guitars, they can
easily be played by one.

Chorus:
_____________________________________________
| 1, 2, 3 | 4 |
A5 B5 | F#5 | F#5 F5 |
|------------------------|----------------------|----------------------|
|o-----------------------|---------------------o|----------------------|
|--2----2----4--4--4--4--|----------------------|----------------------|
|--2----2----4--4--4--4--|-4----4---------------|-4----4------3--3--3--|
|o-0----0----2--2--2--2--|-4----4--------------o|-4----4------3--3--3--|
|------------------------|-2----2-----0--2--0---|-2----2------1--1--1--|
Guit. 1


The solo during one of the verses is mostly just feedback and
improvised.


Outro solo:

Guit. 1 plays Riff A during this part (play xx times til fade)
|-----------------------|--------------------------|
|o----------------------|-------------------------o|
|-----------------------|----------2h3p2-----------|
|--3----3---------------|-3----3-------------------|
|o-2----2---------------|-2----2------------------o|
|--3----3----1--0--1--0-|-3----3----------0--1--0--|
Guit. 2





London Loves - Blur akoru
London Loves - Blur notaları,
London Loves - Blur tablar bas tablar akord akor oku



iletisim  Reklam  Gizlilik sözlesmesi
Diger sitelerimize baktiniz mi ? Radyo Dinle - milli piyango sonuclari - 2017 yeni yil mesajlari - Güzel sözler Sohbet 2003- 2016 Canim.net Her hakki saklidir.