Güzel sözler | Fıkra | Hikaye | Şiir - Şair| Şarkı sözleri | Türküler | Sohbet odaları | Rüya | Sağlık | Biyografi | islam | Güzeller | Paylaş


Canim.net
Akorlar
Akor Ekle
Şarkı sözleri
Yabancı şarkı sözleri
Çeviriler
Türkü
A  B  C  Ç  D  E  F  G  Ğ  H  I  İ  J  K  L  M  N  O  Ö  P  R  S  Ş  T  U  Ü  V  Y  Z 



Like I Love U - Justin Timberlake



e)------7---------------------------------------------------------------------------
B)------7---------------------------------------------------------------------------
G)------7---------------------------------------------------------------------------
D)------7-9----(3X all together like a chord)(like Fa chord but all the way done Si but without finger on G string)
A)------7-9-------------------------------------------------------------------------
E)----7-----------------------------------------------------------------------------

e)------8---------------------------------------------------------------------------
B)------8---------------------------------------------------------------------------
G)------8---------------------------------------------------------------------------
D)------8-10----( all together like a chord)(like Fa chord but all the way done Do but without finger on G string)
A)------8-10-----------------------------------------------------------------------
E)------8---------------------------------------------------------------------------

e)------5---------------------------------------------------------------------------
B)------5---------------------------------------------------------------------------
G)------5-6-------------------------------------------------------------------------
D)------5-7----( all together like a chord)(like Fa chord but all the way done la chord
A)------5-7-------------------------------------------------------------------------
E)------5---------------------------------------------------------------------------




Like I Love U - Justin Timberlake akoru
Like I Love U - Justin Timberlake notaları,
Like I Love U - Justin Timberlake tablar bas tablar akord akor oku



iletisim  Reklam  Gizlilik sözlesmesi
Diger sitelerimize baktiniz mi ? Radyo Dinle - milli piyango sonuclari - 2017 yeni yil mesajlari - Güzel sözler Sohbet 2003- 2016 Canim.net Her hakki saklidir.