Güzel sözler | Fıkra | Hikaye | Şiir - Şair| Şarkı sözleri | Türküler | Sohbet odaları | Rüya | Sağlık | Biyografi | islam | Güzeller | Paylaş


Canim.net
Akorlar
Akor Ekle
Şarkı sözleri
Yabancı şarkı sözleri
Çeviriler
Türkü
A  B  C  Ç  D  E  F  G  Ğ  H  I  İ  J  K  L  M  N  O  Ö  P  R  S  Ş  T  U  Ü  V  Y  Z 



Like Angels Weeping The Darktab - Kataklysm



. - palm mute & - slide up to
- slide down to ~ - vibrato
h - hammer on b - Bend
p - pull off Suffixes for bend
t - tap f - full bend h - half bend
ph - pinched harmonic q - quarter bend t - tap bend
* - see comment ^ - Hold bend r release bend
x - Stuccatto ~ - vibrato bend
, - slight palm mute () - ghost note, sustained note
" - tremolo note <> - Trill
Tuning B
This song was a BITCH to learn so be sure to rate it, okay?

Guitar I 1.3.
|------------------------------------------------------------------------|
|------------------------------------------------------------------------|
|------------------------------------------------------------------------|
|---------------------------77779999----------------------------10"--9"--|
|-----999910"------999910"--------------10"--12"------10"--12"-----------|
|-0000---------0000-----------------0000----------0000-------------------|
2.
|---------------------------------------------------------------------|
|---------------------------------------------------------------------|
|---------------------------------------------------------------------|
|---------------------------7777999910"--77779999-----777712"-10"-9"--|
|------999910"-----999910"-----------------------10"------------------|
|-00000--------0000---------------------------------------------------|
4.
|---------------------------------------------------------------------|
|---------------------------------------------------------------------|
|---------------------------------------------------------------------|
|---------------------------7777999910"--77779999-----777710"--9"-7"--|
|------999910"-----999910"-----------------------10"------------------|
|-00000--------0000---------------------------------------------------|

Guitar II
|-----------------------------------------------------|
|-----------------------------------------------------|
|-----------------------------------------------------|
|-2---2-2--5--2---2-2--7--5--2---2-2--5--7---4---5----|
|-2---2-2--5--2---2-2--7--5--2---2-2--5--7---4---5----|
|-0---0-0--3--0---0-0--5--3--0---0-0--3--5---2---3----|
1.3.
|-------------------------------------------------------------------|
|-------------------------------------------------------------------|
|-------------------------------------------------------------------|
|-------------------------44445555------------------------77775555--|
|-----55557777----55557777------------77779999----77779999----------|
|-0000--------0000----------------0000--------0000------------------|
2.
|-------------------------------------------------------------------|
|-------------------------------------------------------------------|
|-------------------------------------------------------------------|
|-------------------------44445555777744445555----4444999977775555--|
|-----55557777----55557777--------------------7777------------------|
|-0000--------0000--------------------------------------------------|
4.
|-------------------------------------------------------------------|
|-------------------------------------------------------------------|
|-------------------------------------------------------------------|
|-------------------------44445555777744445555----4444777755554444--|
|-----55557777----55557777--------------------7777------------------|
|-0000--------0000--------------------------------------------------|

Guitars I & II
|----------------------------|----------------------------|
|----------------------------|----------------------------|
|----------------------------|----------------------------|
|----------------------------|----------------------------|
|-222-222-222-5---7--7---8---|-222-222-222-5---7---5---3--|
|-000-000-000-3-0-5--5-0-6---|-000-000-000-3-0-5---3-0-1--|
1. 2.
|---------------------------------|---------------------------------|
|---------------------------------|---------------------------------|
|---------------------------------|---------------------------------|
|---------------------------------|---------------------------------|
|--------------------------5---3--|--------------------------5---3--|
|-555577773333555522223333-3-0-1--|-555500003333555522223333-3-0-1--|

Guitars I & II
|--------------------------------------------------------------|
|--------------------------------------------------------------|
|--------------------------------------------------------------|
|------------------------4&3----------------------------3-3-3--|
|-2----------3---6---5---2&1---2----------3---5---------1-1-1--|
|-0--0-0-0-0-1-0-4-0-3-0-----0-0--0-0-0-0-1-0-3-0-0-0-0-1-1-1--|

|----------------------------------------------------------------|
|----------------------------------------------------------------|
|----------------------------------------------------------------|
|------------------------4&3-------------------------------------|
|-2----------3---6---5---2&1---5--------5&8-----87----10-10-10--|
|-0--0-0-0-0-1-0-4-0-3-0-----0-3--3-3-3-3&6-6-6-65-5-5-8--8--8--|

Guitar I
|-----------------|
|-----------------|
|-----------------|
|-----------------|
|-7---9---2---5---|
|-5---7---0---3---|
Guitar II
|--------------------------------------------------|
|--------------------------------------------------|
|--------------------------------------------------|
|-------------------------------------99997777-----|
|-9999----55557777--------9999----5555--------10"--|
|-----0000--------00008888----0000-----------------|
(Continued)
|---------------------------------------------------|
|---------------------------------------------------|
|---------------------------------------------------|
|---------------------------------------------------|
|-9999----55557777----------------------------------|
|-----0000--------00008888777755553333555533332222--|

Guitar I
|-14----14-15----15-14----14-17-15-14-15----14-12----12-10----10-12----12--|
|----12-------12-------12----------------12-------12-------10-------10-----|
|--------------------------------------------------------------------------|
|--------------------------------------------------------------------------|
|--------------------------------------------------------------------------|
|--------------------------------------------------------------------------|
|Harmony |
|--7-----7--8-----8---7---7--12-10--8--7-----7--8-----8--7--5--------------|
|-----5--------5--------5-----------------5--------5-----------8--7--5-----|
|-----------------------------------------------------------------------7--|
|--------------------------------------------------------------------------|
|--------------------------------------------------------------------------|
|--------------------------------------------------------------------------|
|Guitar II
|-----------------|
|-----------------|
|-----------------|
|-----------------|
|-7---9---2---5---|
|-5---7---0---3---|

Guitar II
|--------------------------------------------------|
|--------------------------------------------------|
|--------------------------------------------------|
|--------------------------------------------------|
|-9-9-9-9-9-9-2-2-2-2-2-2-5-5-5-5-5-5-7-7-7-7-7-7--|
|-7-7-7-7-7-7-0-0-0-0-0-0-3-3-3-3-3-3-5-5-5-5-5-5--|
|Guitar I
|-----------------------------------------------------------------------|
|-----------------------------------------------------------------------|
|-----------------------------------------------------------------------|
|-99997777--------------------------------------------------------------|
|---------10"---99997777------7"--9"-------5"--7"-------4"--5"--7"------|
|-----------------------10"------------8"----------7"-------------------|
|Harmony |
|-----------------------------------------------------------------------|
|-----------------------------------------------------------------------|
|-----------------------------------------------------------------------|
|-12"--10"--9"----------------------------------------------------------|
|---------------12"--10"--9"--10"---12"---7"--9"--10"--5"--7"--9"--10"--|
|-----------------------------------------------------------------------|
Guitar I (Continued)
|------------------------------------------------------------------------|
|------------------------------------------------------------------------|
|------------------------------------------------------------------------|
|-99997777----------------------------------------------------------9"---|
|---------10"---99997777------7"--9"--12"--10"--9"--12"--10"--12"--------|
|-----------------------10"----------------------------------------------|
|Harmony |
|------------------------------------------------------------------------|
|------------------------------------------------------------------------|
|------------------------------------------------------------------------|
|-12"--10"--9"---------------------------10"--9"--7"--10"--9"--10"--12"--|
|---------------12"--10"--9"--10"---12"----------------------------------|
|------------------------------------------------------------------------|

Fill
|--------|
|--------|
|--------|
|--2-----|
|--2-----|
|--0-----|

This riff sounds like Machine Head...
|------------------------------------------------------------------|
|------------------------------------------------------------------|
|------------------------------------------------------------------|
|------------------------------------------------------------------|
|-332-2-2-222-2-2-222-2-2-666-333-332-2-2-222-2-2-333-666-555-333--|
|-110-0-0-000-0-0-000-0-0-444-111-110-0-0-000-0-0-111-444-333-111--|

|-----|
|-----|
|-----|
|--2--|
|--2--|
|--0--|




Like Angels Weeping The Darktab - Kataklysm akoru
Like Angels Weeping The Darktab - Kataklysm notaları,
Like Angels Weeping The Darktab - Kataklysm tablar bas tablar akord akor oku



iletisim  Reklam  Gizlilik sözlesmesi
Diger sitelerimize baktiniz mi ? Radyo Dinle - milli piyango sonuclari - 2017 yeni yil mesajlari - Güzel sözler Sohbet 2003- 2016 Canim.net Her hakki saklidir.