Güzel sözler | Fıkra | Hikaye | Şiir - Şair| Şarkı sözleri | Türküler | Sohbet odaları | Rüya | Sağlık | Biyografi | islam | Güzeller | Paylaş


Canim.net
Akorlar
Akor Ekle
Şarkı sözleri
Yabancı şarkı sözleri
Çeviriler
Türkü
A  B  C  Ç  D  E  F  G  Ğ  H  I  İ  J  K  L  M  N  O  Ö  P  R  S  Ş  T  U  Ü  V  Y  Z 



Lifetab - Cem Köksal



D#||-------------------------|-----------------------10-12-13-|
A#||-------------------------|--------------10-12-13----------|
F#||-------------------------|--------------------------------|
C#||--7--------9--7h9-7-6----|--------------------------------|
G#||--0----------------------|----8----7----------------------|
D#||-------------------------|--------------------------------|

--12-13-12-10-8-7-8-7-------------------|-------------------------|
----------------------10-9-9-10---------|-------------------------|
----------------------------------------|-------------------------|
----------------------------------------|--7--------9--7h9-7-6----|
--------------------------------------0-|--0----------------------|
----------------------------------------|-------------------------|

--------------------|--15--13-15-13-12----------------------|
--------------------|-------------------15--13--12--13&-15--|
--------------------|---------------------------------------|
--------------------|---------------------------------------|
----8----7----------|---------------------------------------|
--------------------|---------------------------------------|

--------------13----12-13-12-|--10----8-10-8-7------------|--------------|
--15-------------------------|-------------------10--9----|--------------|
-----------------------------|----------------------------|--------------|
-----------------------------|----------------------------|--------------|
-----------------------------|----------------------------|--------------|
-----------------------------|----------------------------|--------------|

-----0--------------------|-----0--------------------|--------------------------|
--------1-----0--------0--|--------1-----0--------0--|-----0--------3--------3--|
--2--------2-----2--------|--2--------2-----2--------|--------1--------1--------|
--2--------2--------2-----|--2--------2--------2-----|--2--------2--------2-----|
--0--------0--------0-----|--0--------0--------0-----|--2--------2--------2-----|
--------------------------|--------------------------|--0--------0--------------|

--------------------------|-----1--------0--------0--|-----1--------0-----------|
-----0--------3-----3--0--|--------3--------3--------|--------3--------3--------|
--------1--------1--------|--2--------2--------2-----|--2--------2--------2-----|
--2--------2--------------|--0--------0--------------|--0--------0-----------0--|
--2--------2--------------|--------------------------|--------------------------|
--0--------0--------------|--------------------------|--------------------------|

-----1--------0-----------|-----------------------|--------------|
--------1--------0--------|-----0--------3--------|--------------|
-----------2--------2-----|--------1-----1--------|--------------|
--3--------3-----------3--|--2--------2--2--------|--------------|
--3--------------------3--|--2-----------2--------|--------------|
--------------------------|--------------0--------|--------------|

----------------------|--------------------------|--7~-------------10-10-|
---------------8------|--------------------------|-----------------------|
--9~--------------10--|--9-10-9~---------9--9-10-|-----------------------|
----------------------|--------------------------|-----------------------|
----------------------|--------------------------|-----------------------|
----------------------|--------------------------|-----------------------|

--10&-7-7&8-8-8&5--5&7--7--5h7h5h|--4-5-----------7--5-7-5-|
---------------------------------|-------------------------|
---------------------------------|-------------------------|
---------------------------------|-------------------------|
---------------------------------|-------------------------|
---------------------------------|-------------------------|

--4-5---------7-------------|-------------------------|------------------------|
------------------10-12-10--|--9---------------8------|------------------------|
----------------------------|-------------9-10----10--|--9------7------7--9----|
----------------------------|-------------------------|------------10----------|
----------------------------|-------------------------|------------------------|
----------------------------|-------------------------|------------------------|

-----------------------|----8-7h8h7---------------------------------------------|
-----------------------|------------10-8-10-8h10h8------------------------------|
--10-9-7-9-------------|--9------------------------10h9-10-9h10h9h7-------------|
-----------------------|--------------------------------------------10-9-10-9-7-|
-----------------------|--------------------------------------------------------|
-----------------------|--------------------------------------------------------|

----------------------|---------------------------------|
----------------------|----------------------------8----|
----------------------|----10-9-7-----------7--------10-|
--9-9-9--9------------|--9--------10-9-9-10-------------|
----------------------|---------------------------------|
----------------------|---------------------------------|

---------------7&8------10-12-|--13------13--12--10--8--7-8-|--8------------5-7-5--|
-------8----10----------------|-----------------------------|----------------------|
--9-10------------------------|-----------------------------|----------------------|
------------------------------|-----------------------------|----------------------|
------------------------------|-----------------------------|----------------------|
------------------------------|-----------------------------|----------------------|

--4----5&-----7&-----|--0----------------|-----0--------------------|
---------------------|-------------------|--------1-----0--------0--|
---------------------|-------------------|--2--------2-----2--------|
---------------------|-------------------|--2--------2--------2-----|
---------------------|-------------------|--0--------0--------0-----|
---------------------|-------------------|--------------------------|

--------------------------|--------------------------|-----1--------0--------0--|
-----0--------3--------3--|-----0--------3-----3--0--|--------3--------3--------|
--------1--------1--------|--------1--------1--------|--2--------2--------2-----|
--2--------2--------2-----|--2--------2--------------|--0--------0--------------|
--2--------2--------2-----|--2--------2--------------|--------------------------|
--0--------0--------------|--0--------0--------------|--------------------------|

-----1--------0-----------|-----1--------0-----------|--------------------------|
--------3--------3--------|--------1--------0--------|-----0--------0--------0--|
--2--------2--------2-----|-----------2--------2-----|--------1--------1--------|
--0--------0-----------0--|--3--------3-----------3--|--2--------2--------2-----|
--------------------------|--3--------------------3--|--2-----------------------|
--------------------------|--------------------------|--------------------------|

-----0--------------------|-----0--------------------|--------------------------|
--------1-----0--------0--|--------1-----0--------0--|-----0--------3--------3--|
--2--------2-----2--------|--2--------2-----2--------|--------1--------1--------|
--2--------2--------2-----|--2--------2--------2-----|--2--------2--------2-----|
--0--------0--------0-----|--0--------0--------0-----|--2--------2--------2-----|
--------------------------|--------------------------|--0--------0--------------|

--------------------------|-----1--------0--------0--|-----1--------0-----------|
-----0--------3-----3--0--|--------3--------3--------|--------3--------3--------|
--------1--------1--------|--2--------2--------2-----|--2--------2--------2-----|
--2--------2--------------|--0--------0--------------|--0--------0-----------0--|
--2--------2--------------|--------------------------|--------------------------|
--0--------0--------------|--------------------------|--------------------------|

-----1--------0-----------|--------------------------|-----1--------0-----------|
--------1--------0--------|-----0--------0--------0--|--------1--------0--------|
-----------2--------2-----|--------1--------1--------|-----------2--------2-----|
--3--------3-----------3--|--2--------2--------2-----|--3--------3-----------3--|
--3--------------------3--|--2-----------------------|--3--------------------3--|
--------------------------|--------------------------|--------------------------|

--------------------------|-----1--------0-----------|-----------------------|
-----0--------0--------0--|--------1--------0--------|-----0--------3--------|
--------1--------1--------|-----------2--------2-----|--------1-----1--------|
--2--------2--------2-----|--3--------3-----------3--|--2--------2--2--------|
--2-----------------------|--3--------------------3--|--2-----------2--------|
--------------------------|--------------------------|--------------0--------|

------------------|-----0--------------------|-----0--------------------|
------------------|--------1-----0--------0--|--------1-----0--------0--|
------------------|--2--------2-----2--------|--2--------2-----2--------|
------------------|--2--------2--------2-----|--2--------2--------2-----|
------------------|--0--------0--------0-----|--0--------0--------0-----|
------------------|--------------------------|--------------------------|

--------------------------|--------------------------|-----1--------0--------0--|
-----0--------3--------3--|-----0--------3-----3--0--|--------3--------3--------|
--------1--------1--------|--------1--------1--------|--2--------2--------2-----|
--2--------2--------2-----|--2--------2--------------|--0--------0--------------|
--2--------2--------2-----|--2--------2--------------|--------------------------|
--0--------0--------------|--0--------0--------------|--------------------------|

-----1--------0-----------|-----1--------0-----------|--------------------------|
--------3--------3--------|--------1--------0--------|-----0--------0--------0--|
--2--------2--------2-----|-----------2--------2-----|--------1--------1--------|
--0--------0-----------0--|--3--------3-----------3--|--2--------2--------2-----|
--------------------------|--3--------------------3--|--2-----------------------|
--------------------------|--------------------------|--------------------------|

-----0--------------------|-----0--------------------|--------------------------|
--------1-----0--------0--|--------1-----0--------0--|-----0--------3--------3--|
--2--------2-----2--------|--2--------2-----2--------|--------1--------1--------|
--2--------2--------2-----|--2--------2--------2-----|--2--------2--------2-----|
--0--------0--------0-----|--0--------0--------0-----|--2--------2--------2-----|
--------------------------|--------------------------|--0--------0--------------|

--------------------------|-----1--------0--------0--|-----1--------0-----------|
-----0--------3-----3--0--|--------3--------3--------|--------3--------3--------|
--------1--------1--------|--2--------2--------2-----|--2--------2--------2-----|
--2--------2--------------|--0--------0--------------|--0--------0-----------0--|
--2--------2--------------|--------------------------|--------------------------|
--0--------0--------------|--------------------------|--------------------------|

-----1--------0-----------|--------------------------|-----1--------0-----------|
--------1--------0--------|-----0--------0--------0--|--------1--------0--------|
-----------2--------2-----|--------1--------1--------|-----------2--------2-----|
--3--------3-----------3--|--2--------2--------2-----|--3--------3-----------3--|
--3--------------------3--|--2-----------------------|--3--------------------3--|
--------------------------|--------------------------|--------------------------|

--------------------------|-----1--------0-----------|-----------------------||
-----0--------0--------0--|--------1--------0--------|-----0--------3--------||
--------1--------1--------|-----------2--------2-----|--------1-----1--------||
--2--------2--------2-----|--3--------3-----------3--|--2--------2--2--------||
--2-----------------------|--3--------------------3--|--2-----------2--------||
--------------------------|--------------------------|--------------




Lifetab - Cem Köksal akoru
Lifetab - Cem Köksal notaları,
Lifetab - Cem Köksal tablar bas tablar akord akor oku



iletisim  Reklam  Gizlilik sözlesmesi
Diger sitelerimize baktiniz mi ? Radyo Dinle - milli piyango sonuclari - 2017 yeni yil mesajlari - Güzel sözler Sohbet 2003- 2016 Canim.net Her hakki saklidir.