Güzel sözler | Fıkra | Hikaye | Şiir - Şair| Şarkı sözleri | Türküler | Sohbet odaları | Rüya | Sağlık | Biyografi | islam | Güzeller | Paylaş


Canim.net
Akorlar
Akor Ekle
Şarkı sözleri
Yabancı şarkı sözleri
Çeviriler
Türkü
A  B  C  Ç  D  E  F  G  Ğ  H  I  İ  J  K  L  M  N  O  Ö  P  R  S  Ş  T  U  Ü  V  Y  Z 



Liestab - Evanescence



Vocals

Intro&Breaks:
e------------------------------
B------------------------------
G------------2-----------------
D-------2-3----3-2-0-2--------- (about 12 times)
A----0-------------------------
D------------------------------


Chorus:
e--------------------------------------------------------------------------------
B--------------------------------------------------------------------------------
G--------------------------------------------------------------------------------
D--------------------------------------(3x)--------------------------------------
A--------8888---77---555---777---88-------------8888---77---555---333---11---0---
E-----0--------------------------------------0-----------------------------------


Verses:
e-------------------------------------------------
B-------------------------------------------------
G-------------------------------------------------
D----0--------------00---00---00------------------
A----0---(rings...)-00---00---00------------------
E----0--------------00---00---00------------------


Prechorus (a second time):
e--------------------------------------------------------------------------
B--------------------------------------------------------------------------
G--------------9-&-10----------------------6666--6---66666666--------------
D----0000------9-&-10----(repeat 6x)-------6666--6---66666666--------------
A----0000------7-&-8-----------------------4444--4---44444444--------------
E----0000------------------------------------------------------------------
pm xxxx xxxx





Vocals

Verse 1:
Bound at every limb by my shackles of fear
Sealed with lies through so many tears
Lost from within, pursuing the end
I fight for the chance to be lied to again


Prechorus 1:
Youll never be strong enough
Youll never be good enough
You were never concieved in love
You will not rise above


Chorus:
Theyll never see
Ill never be
Ill struggle on and on to feed this hunger
Burning deep inside of me


Verse 2:
But through my tears breaks a blinding light
Birthing a dawn to this endless night
Arms outstretched awaiting me
An open embrace upon a bleeding tree


Prechorus 2:
Rest in me and Ill comfort you
I have lived and I died for you
Abide in me and I vow to you
I will never forsake you

Chorus (repeat twice)


Prechorus 2

Chorus




Liestab - Evanescence akoru
Liestab - Evanescence notaları,
Liestab - Evanescence tablar bas tablar akord akor oku



iletisim  Reklam  Gizlilik sözlesmesi
Diger sitelerimize baktiniz mi ? Radyo Dinle - milli piyango sonuclari - 2017 yeni yil mesajlari - Güzel sözler Sohbet 2003- 2016 Canim.net Her hakki saklidir.