Güzel sözler | Fıkra | Hikaye | Şiir - Şair| Şarkı sözleri | Türküler | Sohbet odaları | Rüya | Sağlık | Biyografi | islam | Güzeller | Paylaş


Canim.net
Akorlar
Akor Ekle
Şarkı sözleri
Yabancı şarkı sözleri
Çeviriler
Türkü
A  B  C  Ç  D  E  F  G  Ğ  H  I  İ  J  K  L  M  N  O  Ö  P  R  S  Ş  T  U  Ü  V  Y  Z 



Let It Be tab - Beatles



C G Am G Fmaj7
e|--------------|----------------|---------0---0-|-0------------|
B|--------------|----------------|-1---3---1---1-|-1--3--3-----1|
G|-0---0--0---0-|-2------0-----0-|-0-------------|----4--2------|
D|--------2-----|-----2----------|---------------|-------2------|
A|--------------|--------2-------|---------------|--------------|
E|--------------|----------------|---------------|--------------|
When I find my-self in times of trou-ble Moth-er Ma-ry comes to

F C G F C Dm7 C
e|-----0-----0----1---|-0-0-------0--|--------------|--------------
B|-1------------------|---0---3------|-3-3-----1----|--------------
G|-2---0-----0----2---|-0-----4------|------------0-|--------------
D|-3------------------|--------------|--------------|--3---2-------
A|--------------------|--------------|--------------|--------------
E|--------------------|--------------|--------------|--------------
me, Speak-ing words of wis-dom let it be -------

C G Am G F
e|--------------|----------------|---------0---0----|--------------|
B|--------------|-1------------1-|-3--3----1---1----|-3--3----1--1-|
G|-0---0--0---0-|-2--0---0-----0-|----4-------------|-4--2----2--2-|
D|--------2-----|-3--------------|------------------|--------------|
A|--------------|----2-----------|------------------|--------------|
E|--------------|----------------|------------------|--------------|
And in my hour of dark-ness She is stand-ing right in front of me

C G F C Dm7 C
e|-0-----0----1----0-|-0-------0----|----------------|----------
B|-------------------|-0---3------3-|-3-----1--------|----------
G|-0-----0----2----0-|-----4--------|----------0-----|----------
D|-------------------|--------------|--------------3-|--2-------
A|-------------------|--------------|----------------|----------
E|-------------------|--------------|----------------|----------
Speak-ing words of wis-dom let it be -------

G Am7 G F C
e|-0------------|-0---3--5---5-3-|-3--3--0--0--|--------------|-0------------
B|----3--1---1--|-1----------0---|-0-----------|-3--1---------|----1---------
G|-0---------2--|----------------|-------------|----2---2---0-|-0------------
D|--------------|----------------|-------------|--------------|----2---------
A|--------------|----------------|-------------|--------------|--------------
E|--------------|----------------|-------------|--------------|--------------
Let it be, ---- Let it be, ---- Let it be, ---- Let it be, ----

G F C Dm7 C
e|-0----0---1-----0-|-0-------0-----|--------------|--------------|
B|------------------|-0--3--------3-|-3--1---------|--------------|
G|-0----0---2-----0-|----4----------|--------0-----|--------------|
D|------------------|---------------|------------3-|--2-----------|
A|------------------|---------------|--------------|--------------|
E|------------------|---------------|--------------|--------------|
Whis-per words of wis-dom, let it be




F Em Dm C Bb F G F C F C G F C G F G C

e|-5--3--1--0-|----------1-|-0----------|-0----------|------------|----------||
B|----0-------|-3--1--3----|----1--1--3-|----3--1----|-1--1--0--1-|-3----1---||
G|-5-----2--0-|-------4--2-|-0--2--2----|-0--------0-|-2-----0--2-|-4--------||
D|------------|-3--3-------|------------|-------2--0-|----2-------|------2---||
A|------------|------------|------------|------------|------------|----------||
LEAD:

|----------------------------------------------------------------|
|----------------------------------------------------------------|
|---5----5-------------------------------------5---7b---7br---5--|
|---5h7--5-------------------5--5-----5---5h7--------------------|
|------------75---3---3&7---------7-----------------------------|
|----------------------------------------------------------------|

|--------8------------------5------------------------------------|
|---------------------------5------------------------------------|
|--7&9------97---5h7---7b-----7br---5---------------------------|
|---------------------------------------7h5---7h5----------------|
|--------------------------------------------------75--3h5--3---|
|----------------------------------------------------------------|

|--------------------------------------------------------8--10b--|
|---------------------------8-------8-------8--10--8h10----------|
|--------5--5------5---7&9-----7&9-----7&9-----------------------|
|---5h7---------7------------------------------------------------|
|----------------------------------------------------------------|
|----------------------------------------------------------------|

|--10br---8h10--8----8--15b--------------------------------------|
|------------------------------15br---13--15---15br---13h15--13--|
|----------------------------------------------------------------|
|----------------------------------------------------------------|
|----------------------------------------------------------------|
|----------------------------------------------------------------|




Let It Be tab - Beatles akoru
Let It Be tab - Beatles notaları,
Let It Be tab - Beatles tablar bas tablar akord akor oku



iletisim  Reklam  Gizlilik sözlesmesi
Diger sitelerimize baktiniz mi ? Radyo Dinle - milli piyango sonuclari - 2017 yeni yil mesajlari - Güzel sözler Sohbet 2003- 2016 Canim.net Her hakki saklidir.